Oops, an error
Loading. Please wait.

Lake Michigan chords

version 1
version 1

Whole song

27,606 views 54 this week
7 commentsread comments
1 2 3 4 5
x 31
add to favorites
×
Save as Personal and add changes to this tab that will be seen only by you. Learn more ›
×
You can save this tab as Personal to edit and correct it or add notes. All changes will be seen only by you. Learn more »
launch autoscroll
font size
0
reset
transpose
0
reset
simplify chords
display chords
guitar tuner
edit
Autoscroll
slow
fast
+/-
esc
set tempo
stop
Strumming Is this strumming pattern correct? Yes No
160 bpm
1
&
2
&
3
&
Listen
Capo 3rd fret

[Intro]
(drums only x2 bars)
[riff] 
(x4 bars)
e|15----------15----------13----------13----------|15----------15----------13----------13----------|
B|----15----------15----------13----------13------|----15----------15----------13----------13------|
G|--------15----------15----------15----------15--|--------15----------15----------15----------15--|
D|------------------------------------------------|------------------------------------------------|
A|------------------------------------------------|------------------------------------------------|
E|------------------------------------------------|------------------------------------------------|

e|15----------13----------13----------15----------|15----------13----------13-------------13----13-|
B|----15----------13----------13----------15------|----15----------13----------13-------13----13---|
G|--------15----------15----------15----------15--|--------15----------15----------15-15----15-----|
D|------------------------------------------------|------------------------------------------------|
A|------------------------------------------------|------------------------------------------------|
E|------------------------------------------------|------------------------------------------------|

G    Cmaj7    G    Cmaj7   (x4 bars, 2 with the riff above)

[Verse 1]
G              Cmaj7                        G
  heaven is a switchboard that you want to fight
               Cmaj7                      G
she would even miss you if you taught her sight
          Cmaj7                 G           
power politician leaning to the right
             Cmaj7                   
baby's got a trust fund that she'll want to 

[Chorus]
Em          A
go off like that
C             G
get off of my stack
Em            A
leave a little window
C             G      Cmaj7    G    Cmaj7
get off of my stack
G      Cmaj7   G     Cmaj7

[Verse 2]
now we wear same-colored yellow uniforms
sky is burning but at least we know we're warm
go and run yourself a million miles
hoping that the colors run out and you 

[Chorus 2]
go off like that
get off of my stack
leave a little window
get off of my stack

[Instrumental]
G      Cmaj7   G     Cmaj7

[Bridge]
G               Cmaj7         G            Cmaj7
  you can never see yourself  ringing all around it  (x6)

[Bridge 2]
A                                 C  G  A
no one, no one................... michigan
you labored, you labored......... michigan

[Chorus 3]
not another payoff
get off of my stack
leave a little window
get off of my stack
you know it won't do
get off of my stack
G      Cmaj7      G      Cmaj7
stack

[Outro]
G      Cmaj7      G      Cmaj7  (x8 bars)
n'yeah yeah,      n'yeah  yeah

            
            
Suggest correction
Creating personal tab
Creating personal tab
You can edit any tab online and save it as your Personal.

You can edit, replace or remove any tab part or add personal notes – all changes will be seen only by you.

Personal tabs can be accessed anytime from any device, even offline.
Learn more »
comments
print report bad tab
7 comments total. Showing first comments.
+2 reply
lymphnodes 10 Dec 06, 2007 11:15 AM

You might want to clarify that where you marked (bar) is NOT relative to the capo. (I'm assuming this is what you
meant...that's what should be anyway.) Relative to the capo, you'd be playing F#m and B.

0 reply
Theham 51 Jan 21, 2008 04:25 PM

exactly, F#m and B

+1 reply
Theham 51 Jan 21, 2008 04:26 PM

... .. thanks for the tab!

guest
You may want to rate the tab now too:
select rating
Wanna post a correction for this tab? Suggest correction