Oops, an error
Loading. Please wait.

Lake Michigan tab

version 1
version 1

Whole song

11,660 views 1 this week
1 commentread comment
1 2 3 4 5
x 4
add to favorites
×
Save as Personal and add changes to this tab that will be seen only by you. Learn more ›
×
You can save this tab as Personal to edit and correct it or add notes. All changes will be seen only by you. Learn more »
launch autoscroll
font size
0
reset
how to read this tab
guitar tuner
edit
Autoscroll
slow
fast
+/-
esc
set tempo
stop
Difficulty
by: Kyle


This song uses two guitars.

INTRO: (Main Riff)
e|--15--------15-------------13--------13--------|
B|-----15--------15-------------13--------13-----|
G|--------15--------15-------------15--------15--|
D|-----------------------------------------------|
A|-----------------------------------------------|
E|-----------------------------------------------|


VERSE:
e|--6--6----6--6--|
B|--6--6----8--8--|
G|--5--5----8--8--|
D|--8--8----8--8--|
A|--8--8----6--6--|
E|--6--6----------|
(You'll have to listen to the song for the strumming patterns)




Chorus
e|-------------------------------|
B|-------------------------------|
G|----------5--5---8--8----------|
D|--5--5----5--5---8--8---8--8---|
A|--5--5----3--3---6--6---8--8---|
E|--3--3------------------6--6---|

(Play over chords)

e|-------------------------------|
B|--6-6-6-5-5-5----4-4-4-3-3-3---|
G|---7-7-7-7-7-7----3-3-3-3-3-3--|
D|-------------------------------|
A|-------------------------------|
E|-------------------------------|


INTERLUDE:
Use the verse chords, then;
    C  C  D# D#/D C
e|-------------------|
B|-------------------|
G|--5--5----8--7--5--|
D|--5--5----8--8--5--|
A|--3--3----6--5--3--|
E|-------------------|



OUTRO

e|--15--------15-------------13--------13--------|
B|-----15--------15-------------13--------13-----|
G|--------15--------15-------------15--------15--|
D|-----------------------------------------------|
A|-----------------------------------------------|
E|-----------------------------------------------|
play this over the chords below

e|--6--6----6--6--|
B|--6--6----8--8--|
G|--5--5----8--8--|
D|--8--8----8--8--|
A|--8--8----6--6--|
E|--6--6----------|

            
            
Suggest correction
Creating personal tab
Creating personal tab
You can edit any tab online and save it as your Personal.

You can edit, replace or remove any tab part or add personal notes – all changes will be seen only by you.

Personal tabs can be accessed anytime from any device, even offline.
Learn more »
comments
print report bad tab
1 comment total.
+3 reply
alteemsma 10 Aug 22, 2008 12:30 PM

e|--6--| Maybe it's just me, but that chord is
B|--6--| physically impossible to play.
G|--5--| Did you mean "7" instead of "5"?
D|--8--| That would make this an A# Major.
A|--8--|
E|--6--|

guest
Wanna post a correction for this tab? Suggest correction