Oops, an error
Loading. Please wait.

Bajo Tu Control Dios tab

by Rojo
33 views 1 this week
no commentswrite comment
1 2 3 4 5
3 more votes to show rating
add to favorites
×
Save as Personal and add changes to this tab that will be seen only by you. Learn more ›
×
You can save this tab as Personal to edit and correct it or add notes. All changes will be seen only by you. Learn more »
launch autoscroll
font size
0
reset
how to read this tab
guitar tuner
edit
Autoscroll
slow
fast
+/-
esc
set tempo
stop
para q me entiendan mejor vean el video de esta cancion
en yube q esta en vivo desde argentina

intro
4ta cuerda------12----12--12-----10--10-10---
5ta cuerda-10-10--1010--10-----88--88--8-----

Si pudiera yo subir al cielo allí te encontraría si bajara
Gm - D#m Dm-F               Gm - D#m Dm-F     Gm - D#m Dm-F
a lo profundo de la tierra también allí te encontraría
                    RE#
Si volara yo hacia el este tu mano derecha me guiaría si me
  Gm - D#m Dm-F             Gm - D#m Dm-F     Gm - D#m Dmm
quedara a vivir en el oeste también ahí me darías tu ayuda
            F           RE#

Coro
  //Me tienes rodeado por completo estoy bajo tu control //
    LA#               FA            Gm           RE#
   //Narana narana narana Narana narana narana bajo tu control//
        Gm               RE#               LA#            FA


Para ti no hay diferencia entre la oscuridad y la luz
   Gm - D#m Dm-F            Gm  - D#m  Dm  -F
para ti hasta la noche brilla como la luz del sol
              Gm - D#m Dm-F D#

//Me tienes rodeado por completo estoy bajo tu control //
    LA#               FA            Gm           RE#


Dios mío que difícil me resulta entender tus pensamientos pero
//Gm //                         // D#//
mas difícil todavía me seria tratar de contarlo ¡ho!
            //LA# //             //F //               //Gm //
Seria más que la arena del mar y aun así si pudiera contarlo
                   //D# //                      //LA#//
me dormiría y al despertar todavía todavía estarías conmigo
                   //F //

//Me tienes rodeado por completo estoy bajo tu control //
  LA#               FA            Gm           RE#
//Narana nanana narana Narana nanana narana bajo tu control//
    Gm               RE#               LA#            FA


TAMBIEM LA PUEDEN ASER ASI


SI pudiera.........
 Gm -  D#m  Dm -  F                   D#m
--------------------------    ---------------
-8-8---8-8--6-6--101010---    ---------------
-7-7---8-8--7-7--101010---    -----8-8-8-8---
--------------------------    -----8-8-8-8---
--------------------------    -----5-5-5-5---
--------------------------    ---------------

Coro
me tienes rodeado...........
LA#               FA            Gm           RE#
----------------------------------------------------------
--11-11-11-11----10-10-10-10----8-8-8-8----8-8-8-8--------
--10-10-10-10----10-10-10-10----7-7-7-7----8-8-8-8--------
----------------------------------------------------------
----------------------------------------------------------
----------------------------------------------------------

nara.........
Gm             RE#          LA#            FA
----------------------------------------------------
--8-8-8-8----8-8-8-8----11-11-11-11---10-10-10-10---
--7-7-7-7----8-8-8-8----10-10-10-10---10-10-10-10---
----------------------------------------------------
----------------------------------------------------
----------------------------------------------------


Dios mio q dificil me resulta...............
Gm               RE#               LA#            FA
----------------------------------------------------
--8-8-8-8----8-8-8-8----11-11-11-11---10-10-10-10---
--7-7-7-7----8-8-8-8----10-10-10-10---10-10-10-10---
----------------------------------------------------
----------------------------------------------------
----------------------------------------------------

ALGUNA DUDA ME ESCRIben
angelito17_20@
saludos para la iglesia filadelfia (prolima peru)

            
            
Suggest correction
Creating personal tab
Creating personal tab
You can edit any tab online and save it as your Personal.

You can edit, replace or remove any tab part or add personal notes – all changes will be seen only by you.

Personal tabs can be accessed anytime from any device, even offline.
Learn more »
Give kudos to tab author, rate the tab!
1 2 3 4 5
comments
print report bad tab
guest
Wanna post a correction for this tab? Suggest correction