Oops, an error
Loading. Please wait.

Como No Voy A Alabarte tab

by Rojo
52 views 1 this week
no commentswrite comment
1 2 3 4 5
3 more votes to show rating
add to favorites
×
Save as Personal and add changes to this tab that will be seen only by you. Learn more ›
×
You can save this tab as Personal to edit and correct it or add notes. All changes will be seen only by you. Learn more »
launch autoscroll
font size
0
reset
how to read this tab
guitar tuner
edit
Autoscroll
slow
fast
+/-
esc
set tempo
stop
VERSO

e-55-55-7-55-55-55-7-55-555-555------55-55-7-55-----
B-55-55-7-55-55-55-7-55-666-666-15s5-55-55-7-55-----
G--------------------------------------------------- 
D---------------------------------------------------   
A---------------------------------------------------
E---------------------------------------------------

PRECORO:F E7 D

CORO
Gm A# C D#

buelve al verso
PRECORO
CORO

   1      2  3   1      2  3
 
--33333--66--5--33333--66--5
--33333--66--6--33333--66--6
-------------7-------------7
----------------------------
----------------------------

1
Tu verdad me lanzo a volar, 
                2      3   
Me enseño, no tendre temor
1                                  2      3     
Tu amor conoci, realidad yo vivi en mi corazon
1
Morire al vivir, vivire al morir
  2          3 
confiare en ti
1
con ardor cantare, con pasion danzare
       2     3    
solo en ti Jesus

SOLO

e---------10s11s10--------------------10s11s10--------------------10s11s10--------------------10s11s10-----10s17
B--0s8s7s8--------7s8s7s8s7s888--8s7s8--------7s8s7s8s7s888--8s7s8--------7s8s7s8s7s888--8s7s8--------7s8s7s8s15
G---------------------------------------------------------------------------------------------------------------
D---------------------------------------------------------------------------------------------------------------
A---------------------------------------------------------------------------------------------------------------
E---------------------------------------------------------------------------------------------------------------

CORO

la parte del final es

e--15-13s15-13s15-13s15-16-15-13
B-------------------------------
G--------------------------------
D--------------------------------
A--------------------------------
E--------------------------------

la parte final se repite variasveces 
espero que les sirba y que lo aprobechen 
que dios les bendiga

            
            
Suggest correction
Creating personal tab
Creating personal tab
You can edit any tab online and save it as your Personal.

You can edit, replace or remove any tab part or add personal notes – all changes will be seen only by you.

Personal tabs can be accessed anytime from any device, even offline.
Learn more »
Give kudos to tab author, rate the tab!
1 2 3 4 5
comments
print report bad tab
guest
Wanna post a correction for this tab? Suggest correction