Oops, an error
Loading. Please wait.

Como Te Deseo tab

by Rojo
31 views 1 this week
no commentswrite comment
1 2 3 4 5
3 more votes to show rating
add to favorites
×
Save as Personal and add changes to this tab that will be seen only by you. Learn more ›
×
You can save this tab as Personal to edit and correct it or add notes. All changes will be seen only by you. Learn more »
launch autoscroll
font size
0
reset
how to read this tab
guitar tuner
edit
Autoscroll
slow
fast
+/-
esc
set tempo
stop
Algunos acordes están difíciles de poner
No se desesperen

E --|---0---|---3---|---1---|---1---|---3---|
B --|---1---|---6---|---3---|---3---|---3---|
G --|---0---|---5---|---2---|---2---|---0---|
D --|---2---|---3---|---0---|---0---|---0---|
A --|---3---|---0---|---0---|---3---|---2---|
E --|---0---|---0---|---0---|---0---|---3---|
        C     FAdd2     Dm     Dm/C     G

E --|---1---|---1---|---1---|---0---|---1---|---1---|
B --|---1---|---1---|---3---|---1---|---1---|---1---|
G --|---3---|---3---|---3---|---0---|---2---|---2---|
D --|---3---|---3---|---3---|---2---|---3---|---0---|
A --|---1---|---0---|---1---|---0---|---3---|---0---|
E --|---0---|---3---|---1---|---0---|---1---|---0---|
     BbAdd2   GmAdd2    Bb      Am7     F      Dm7

Toquen las notas que se marcan y se va asiendo el arpegio

Intro

   FAdd2
E -----------3-----------|
B --------6--------6-----|
G -----5--------5-----5--|    Se toca 4 veces
D --3--------------------|
A -----------------------|
E -----------------------|

   C                       FAdd2
E -----------0-----------|-----------3-----------|
B --------1--------1-----|--------6--------6-----|
G -----0--------0-----1--|-----5--------5-----5--|
D -----------------------|--3--------------------|
A --3--------------------|-----------------------|
E -----------------------|-----------------------|

   Dm                      Dm/C
E -----------1-----------|-----------1-----------|
B --------3--------3-----|--------3--------3-----|
G -----2--------2-----2--|-----2--------2-----2--|
D --0--------------------|-----------------------|
A -----------------------|--3--------------------|
E -----------------------|-----------------------|

Se repiten
Se deben de repetir algunas notas pero no le puse
Como 2 veces cada una

           Am7 G  FAdd2              Am7 G  FAdd2
//Como te deseo,          como te deseo//

   F                        Bbadd2
E -----------1-----------|-----------1-----------|
B --------1--------1-----|--------1--------1-----|
G -----2--------2-----2--|-----3--------3-----3--|
D -----------------------|-----------------------|
A -----------------------|--1--------------------|
E --1--------------------|-----------------------|

   Gmadd4                  F
E -----------1-----------|-----------1-----------|
B --------1--------1-----|--------1--------1-----|
G -----3--------3-----3--|-----2--------2-----2--|
D -----------------------|-----------------------|
A -----------------------|-----------------------|
E --3--------------------|--1--------------------|

    C
E -----------0-----------|
B --------1--------1-----|
G -----0--------0-----1--|
D -----------------------|
A --3--------------------|
E -----------------------|


        Dm7  C          Bbadd2   C
//Te deseo,       te deseo//


   Dm7         C    Bbadd2      C
//Solo a ti Jesús, Solo a Ti Señor//

Va la parte del final mientras cantan

Final

   F                        Bbadd2
E -----------1-----------|-----------1-----------|
B --------1--------1-----|--------1--------1-----|
G -----2--------2-----2--|-----3--------3-----3--|
D -----------------------|-----------------------|
A -----------------------|--1--------------------|
E --1--------------------|-----------------------|


Me falto ponerle cuantas veces se repite
Toquen los acordes mientras tocan el arpegio
Le faltan algunos detalles pero van con esas notas


Saludos a la iglesia Ríos de agua viva

Por favor boten por esta canción

            
            
Suggest correction
Creating personal tab
Creating personal tab
You can edit any tab online and save it as your Personal.

You can edit, replace or remove any tab part or add personal notes – all changes will be seen only by you.

Personal tabs can be accessed anytime from any device, even offline.
Learn more »
Give kudos to tab author, rate the tab!
1 2 3 4 5
comments
print report bad tab
guest
Wanna post a correction for this tab? Suggest correction