Oops, an error
Loading. Please wait.

Eres Lo Mejor bass

by Rojo
59 views 1 this week
no commentswrite comment
1 2 3 4 5
3 more votes to show rating
add to favorites
×
Save as Personal and add changes to this tab that will be seen only by you. Learn more ›
×
You can save this tab as Personal to edit and correct it or add notes. All changes will be seen only by you. Learn more »
launch autoscroll
font size
0
reset
guitar tuner
edit
Autoscroll
slow
fast
+/-
esc
set tempo
stop
?s?=deslizar, ?p?=jalar, ?h?=martillar, ?t?=soltar
:Intro:(Rasgueo de Guitarra)
:Estrofa:

Eres mi amigo...

G]:-----------:------------:------------:------------:
D]:-----------:------------:------------:------------:
A]:2-2s-------:------------:------------:------------:
E]:-----------:------------:------------:------------:

Cada momento...

G]:-----------:------------:------------:------------:
D]:-----------:------------:------------:------------:
A]:-----------:------------:------------:------------:
E]:5h-7s------:------------:------------:------------:

:Pre-Coro:

Que bueno es...

G]:--------------:---------------:---------------:---------------:
D]:--------------:---------------:---------------:4-4-4-4--------:
A]:--------------:4-4-4-4-4-4-4-4:7-7-7-7-7-7-7-7:---------------:
E]:2s-4-4-4-4-4-4:---------------:---------------:--------2-2-2-2:

:Coro:

Eres lo mejor...

G]:-------------------:---------------:
D]:-------------------:------------2--:(x2)
A]:2-2-2---2---5-5-5-5:4-4-4-4--------:
E]:------2---2--------:--------0-0---0:

Nunca olvidare...

G]:-------------------:---------------:---------------:--------------:
D]:-------------------:------------2--:---------------:--------------:
A]:2-2-2---2---5-5-5-5:4-4-4-4--------:---------------:2-2-2-2-2-----:
E]:------2---2--------:--------0-0---0:3-3-3-3-2-2-2-2:--------------:

:Intro:

G]:-----------:------------:------------:------------:
D]:-----------:------------:------------:------------:
A]:-----------:------------:------------:------------:
E]:7s---------:------------:------------:------------:

:Estrofa:

Si en un desierto...

G]:-----------:-------------:------------:------------:
D]:-----------:-------------:------------:------------:
A]:-----------:2s-7-7-------:------------:------------:
E]:7s---------:-------------:------------:------------:

Y si no tengo...

G]:-----------:------------:------------:----11p-12p-14p--------:
D]:-----------:------------:------------:----------------14t-12s:
A]:-----------:------------:------------:-----------------------:
E]:5h-7-------:------------:------------:-----------------------:

:Pre-Coro:
:Coro:
:Intermedio:(Solo de Guitarra)

G]:-------------:------------:------------:------------:------------:
D]:-Silencio de-:7h-9s-------:------------:7s-9-7h-9s--:------------:
A]:-4 compases--:------------:--7-7-------:------------:4s-7s-------:
E]:-------------:------------:7-----------:------------:------------:

:Intermedio:(Musica a Tiempo / Voz en Contratiempo)

Te Buscare...

G]:-------------:-------------:-------------:-----------------:
D]:-------------:-------------:-------------:-----------------:
A]:2---2---2---2:-------------:2---2---2---2:-----------------:
E]:-------------:0---0---0---0:-------------:0---0---0---0---0:

En ti encuentro...

G]:-------------:-------------:-------------:-----------------:
D]:-------------:-------------:-------------:-----------------:
A]:2---2---2---2:-------------:2---2---2---2:-----------------:
E]:-------------:0---0---0---0:-------------:0---0---0---0---0:

:Coro:(Fade Out)

Saludos para mi Banda: Israel, Josue, Moises, Luis Mestanza
y a mi fan Kathy!!!!

            
            
Suggest correction
Creating personal tab
Creating personal tab
You can edit any tab online and save it as your Personal.

You can edit, replace or remove any tab part or add personal notes – all changes will be seen only by you.

Personal tabs can be accessed anytime from any device, even offline.
Learn more »
Give kudos to tab author, rate the tab!
1 2 3 4 5
comments
print report bad tab
guest
Wanna post a correction for this tab? Suggest correction