Oops, an error
Loading. Please wait.

Fuego De Dios tab

by Rojo
244 views 1 this week
no commentswrite comment
1 2 3 4 5
3 more votes to show rating
add to favorites
×
Save as Personal and add changes to this tab that will be seen only by you. Learn more ›
×
You can save this tab as Personal to edit and correct it or add notes. All changes will be seen only by you. Learn more »
launch autoscroll
font size
0
reset
how to read this tab
guitar tuner
edit
Autoscroll
slow
fast
+/-
esc
set tempo
stop
INTRO:

E----------------------------------------
B---------7------7-------------8------8--
G------------7---------------------7-----
D---7h9---------------7h9----------------
A----------------------------------------
E----------------------------------------

E----------------------------------------
B---8P7-7-7---------7P5-5-5--------------
G---7---7-7-----------6-6-6--------------
D----------------------------------------
A----------------------------------------
E----------------------------------------

despues de esto siguen las estrofas y exantamente lo mismo :xD
cuando llega donde dicee...
Seré tuyo hasta que vuelvas.. ve esto antes de entrar al coro oOk

    G
E--3-3-------------3----------
B--3-3-----------------3------
G--4-4---------4--------------
D--5--------------------------
A--5--------------------------
E--3-------3------------------

primera vez que canta el coro se toca esto
oOk ojo solo la primera vez de ai se regresa otra vez alas estrofas

E----------------------------------------
B---------7------7-------------8------8--
G------------7---------------------7-----
D---7h9---------------7h9----------------
A----------------------------------------
E----------------------------------------

E----------------------------------------
B---8P7-7-7---------7P5-5-5--------------
G---7---7-7-----------6-6-6--------------
D----------------------------------------
A----------------------------------------
E----------------------------------------

y te don todos mis dias....

E----------------------------------------
B---------7------7-------------8------8--
G------------7---------------------7-----
D---7h9---------------7h9----------------
A----------------------------------------
E----------------------------------------

E----------------------------------------
B---8P7-7-7---------7P5-5-5--------------
G---7---7-7-----------6-6-6--------------
D----------------------------------------
A----------------------------------------
E----------------------------------------

otra vez para entrar a coro :xD

    G
E--3-3-------------3----------
B--3-3-----------------3------
G--4-4---------4--------------
D--5--------------------------
A--5--------------------------
E--3-------3------------------

y ahora si se toca las notas oOk

coro: Bm-G-D-A
(2 vez se termina en "G" pero es la misma secuencia)

de ahi la parte del biolonchelo es:


E------------------
B------------------
G-------4----------
D--4/5-----7-------
A-------------5h7--
E------------------

E-------------------------------------
B-------------------------------------
G--0h4-----------------4-6-7-4--4-----
D-----------4--4-7-4-7---------7--4---
A-------5-7--7------------------------
E-------------------------------------

E--------------------------
B----7h8-------------------
G--------9-7-9-7-6--6h7-4--
D--4-----------------------
A--------------------------
E--------------------------

de ahi sigue esto

Em                Bm
  Solo quiero agradarte

G                 D - A
  Y mi mundo entregarte

Em                   Bm
  Quita todo lo que estorbe

       G                    A
  Para ti quiero siempre vivir

coro: Bm-G-D-A

y sigue la secuencia donde dice..
Purificame ven y llename otra vez uuuoooh  uuuoooh  Ooooo
es lo mismo sigue la secuencia Bm-G-D-A se escucha bien
no hay problema :xD

y para terminar

E------------------------
B------------------------
G--7--6------------------
D-------9-7-5-4---7-4----
A---------------7--------
E---------------------3--


cualquier duda me la asen saber mi correo es
samy_nike_09@
espero q`esta cancion sea de gran bendicion para ustedes
esta super facil solo escuchenla bien oOk y no pierdan el tiempo
q`es lo mas importante bueno pues
dios los bendiga DTb by:sammy ^_^

            
            
Suggest correction
Creating personal tab
Creating personal tab
You can edit any tab online and save it as your Personal.

You can edit, replace or remove any tab part or add personal notes – all changes will be seen only by you.

Personal tabs can be accessed anytime from any device, even offline.
Learn more »
Give kudos to tab author, rate the tab!
1 2 3 4 5
comments
print report bad tab
guest
Wanna post a correction for this tab? Suggest correction