Oops, an error
Loading. Please wait.

Gasolina tab

version 2
version 2

Whole song

by Rojo
94 views 1 this week
no commentswrite comment
1 2 3 4 5
3 more votes to show rating
add to favorites
×
Save as Personal and add changes to this tab that will be seen only by you. Learn more ›
×
You can save this tab as Personal to edit and correct it or add notes. All changes will be seen only by you. Learn more »
launch autoscroll
font size
0
reset
how to read this tab
guitar tuner
edit
Autoscroll
slow
fast
+/-
esc
set tempo
stop
Bueno aki esta mi version de esta supér rola creo que esta bien...asi
yo la eh tocado y pss la uqise compartir...
Creo que esa rola no se toca con notas si no con puro..riff...
bueno saludos a los de coatza...y ojala se me haga con la chava que 
Dios me ha mandado.
Bye bye...AtTe: KoKiTo

Trafico mental, muy poca claridad

E-------------------------------------------
A--4-4-6h5h4-7----------4-4-6h5h4---4-------
D--------------4------------------7---------
G-------------------------------------------
B-------------------------------------------
e-------------------------------------------


Lo intento una vez mas y logro depegar.

E-------------------------------------------
A--4-4-6h5h4-7----------4-4-6h5h4---4-------
D--------------4------------------7---------
G-------------------------------------------
B-------------------------------------------
e-------------------------------------------

B5      A5
La confusion se queda atras,

                    E-------------------------------------------
                    A----4-4--------4---4-4-------4-------------
                    D---------7h6-4---------7h6-4---------------
                    G-------------------------------------------
                    B-------------------------------------------
                    e-------------------------------------------
B5      A5
y tu impulso es tan real.

                    E-------------------------------------------
                    A----4-4--------4---4-4-------4-------------
                    D---------7h6-4---------7h6-4---------------
                    G-------------------------------------------
                    B-------------------------------------------
                    e-------------------------------------------


Coro:
E                 F#5
Eres gasolina que me enciende a creer
A5                  C#5 B5
nunca nada va a detenerme,
E                 F#5
Tú eres la flama que siempre me hace renacer
A5                  C#5 B5    A
dejaria todo por tenerte en mi.


Mueves el motor, de todo lo que soy

E-------------------------------------------
A--4-4-6h5h4-7----------4-4-6h5h4---4-------
D--------------4------------------7---------
G-------------------------------------------
B-------------------------------------------
e-------------------------------------------


me arriesgo mientras tu, mantienes el cotrol.

E-------------------------------------------
A--4-4-6h5h4-7----------4-4-6h5h4---4-------
D--------------4------------------7---------
G-------------------------------------------
B-------------------------------------------
e-------------------------------------------

B5      A5
Puedo ver con claridad

                E-------------------------------------------
                    A----4-4--------4---4-4-------4-------------
                    D---------7h6-4---------7h6-4---------------
                    G-------------------------------------------
                    B-------------------------------------------
                    e-------------------------------------------


B5       A5
y correr sin decansar.

                    E-------------------------------------------
                    A----4-4--------4---4-4-------4-------------
                    D---------7h6-4---------7h6-4---------------
                    G-------------------------------------------
                    B-------------------------------------------
                    e-------------------------------------------


CORO....


Coro:
E                 F#5
Eres gasolina que me enciende a creer
A5                  C#5 B5
nunca nada va a detenerme,
E                 F#5
Tú eres la flama que siempre me hace renacer
A5                  C#5 B5    A
dejaria todo por tenerte en mi.


Intermedio:

Bajo:

E------------------------4------------------
A---4-4-2-2-4-4--2-0h2p0-------------------- 
D-------------------------------------------
G-------------------------------------------
**** se repite en todo el untermedio
y cuando canta el intermedio es el puro bajo


Mueves el motor de todo lo que soy

mueves el motor de todo lo que soy


Solo: Sorry no lo eh sacado, yo a esta rola le puse otro solo 
echo por mi....bueno ahi luego se los mando


Coro:
E                 F#5
Eres gasolina que me enciende a creer
A5                  C#5 B5
nunca nada va a detenerme,
E                 F#5
Tú eres la flama que siempre me hace renacer
A5                  C#5 B5    A
dejaria todo por tenerte en mi.

Final:

E---------------4-2-4-----------------------
A--4-4-2-2-4-4------------------------------
D------------------------------------------- *
G-------------------------------------------
B------------------------ 5~ ---------------
e-------------------------------------------

E---------------4-2-4-----------------------
A--4-4-2-2-4-4------------------------------
D------------------------------------------- *
G-------------------------------------------
B------------------------ 6~ ---------------
e-------------------------------------------

E---------------4-2-4-----------------------
A--4-4-2-2-4-4------------------------------
D------------------------------------------- *
G-------------------------------------------
B------------------------ 7~ ---------------
e-------------------------------------------

E---------------4-2-4---4-------------------
A--4-4-2-2-4-4--------2---2h4---------------
D------------------------------------------- *
G-------------------------------------------
B-------------------------------------------
e-------------------------------------------


*** Esta es la primera parte del final

E---------------4-2-4---4-------------------
A--4-4-2-2-4-4--------2---2h4---------------
D------------------------------------------- (x4) 
G-------------------------------------------
B-------------------------------------------
e-------------------------------------------
esta es la final ahi oiganla que no estoy seguro
                                                
el final... pero bueno de algo servira

Bueno saludines y ojala le salga...es con efecto 
rockero...Dios le bendiga y califiquenme para ir mejorando

alguna duda o comentario ahi esta mi mail...bueno saludos 
a los de coatza...Iglesia monte hermon..Rullzz

**mTxxx** 'ALgun dia ya no nos veran'

            
            
Suggest correction
Creating personal tab
Creating personal tab
You can edit any tab online and save it as your Personal.

You can edit, replace or remove any tab part or add personal notes – all changes will be seen only by you.

Personal tabs can be accessed anytime from any device, even offline.
Learn more »
Give kudos to tab author, rate the tab!
1 2 3 4 5
comments
print report bad tab
guest
Wanna post a correction for this tab? Suggest correction