Oops, an error
Loading. Please wait.

Por Conocerte tab

version 1
version 1

Whole song

by Rojo
46 views 1 this week
no commentswrite comment
1 2 3 4 5
2 more votes to show rating
add to favorites
×
Save as Personal and add changes to this tab that will be seen only by you. Learn more ›
×
You can save this tab as Personal to edit and correct it or add notes. All changes will be seen only by you. Learn more »
launch autoscroll
font size
0
reset
how to read this tab
guitar tuner
edit
Autoscroll
slow
fast
+/-
esc
set tempo
stop
Bueno pues esta es mi primera colaboración
con este sitio y pues hay les va mi tanscripción
la canción es de el dvd de rojo con el corazón tour
espero que les guste y pues ahí ta

Intro:

e|----------------------------------------------------------------------|
B|------------------------------------------------5---------------------|
G|-1-2-4---6-6-6-9--6-6-6-9--6-6-4-2-----2/4-4-4----4/6-6-4--2-2/4-4-4--|
D|-----------------------------------2/4--------------------------------|
A|----------------------------------------------------------------------|
E|----------------------------------------------------------------------|

luego despues de coro va esto

e|--------------------------------------------------------------|
B|---------------------------------------5----------------------|
G|-6-6-6-9--6-6-6-9--6-6-4-2-----2/4-4-4----4/6-6-4-2--2/4--4-4-|
D|---------------------------2/4--------------------------------|
A|--------------------------------------------------------------|
E|--------------------------------------------------------------|

 y al ultimo esto:

e|--------------------------------|
B|--------------------------------|
G|-6-6-6-9--6-6-6-9--6-6-4-2------|
D|----------------------------2/4-|
A|--------------------------------|
E|--------------------------------|

casi todo se repite y bueno pues aprovecho
y mando saludos a el Grupo "GEAR" de chahuites Oaxaca
haya en Mexico porque tocan bien y el mas grande de
sus integrantes tiene 13 años y el mas chico tiene
10 años y yo soy uno de sus integrantes Y ¡Viva mexico!
Dudas comentarios a mi correo ado_mtz@
chao

            
            
Suggest correction
Creating personal tab
Creating personal tab
You can edit any tab online and save it as your Personal.

You can edit, replace or remove any tab part or add personal notes – all changes will be seen only by you.

Personal tabs can be accessed anytime from any device, even offline.
Learn more »
Give kudos to tab author, rate the tab!
1 2 3 4 5
comments
print report bad tab
guest
Wanna post a correction for this tab? Suggest correction