Oops, an error
Loading. Please wait.

Quiero Volar bass

version 1
version 1

Whole song

by Rojo
34 views 1 this week
no commentswrite comment
1 2 3 4 5
3 more votes to show rating
add to favorites
×
Save as Personal and add changes to this tab that will be seen only by you. Learn more ›
×
You can save this tab as Personal to edit and correct it or add notes. All changes will be seen only by you. Learn more »
launch autoscroll
font size
0
reset
guitar tuner
edit
Autoscroll
slow
fast
+/-
esc
set tempo
stop
            Esta canción de Rojo, tenia un buen tiempo en que la quería sacar pero como a penas tenia 
Conocimiento del bajo, no podía y ahora es por eso que quiero compartirla con todos. Esta padre 
La rola y espero haber podido sacar las figuras lo mas parecido posible al original. Aquí les va..... 

Clave:    :: s = Slide;  = Slap; h = Hammer on/pull off::

::Intro::

E |---------------------------------------------------------------------------7---3---
A |---3---5---7---5-------3---5---7---5------3---5---7---5------3---5---7-------------
D |-----------------------------------------------------------------------------------
G |-----------------------------------------------------------------------------------
B |-----------------------------------------------------------------------------------


::Verso::                   ::2 Veces::

E |---------------------4----------4---4--4------------4---4--4-------------------------4----------4---4--4------------4---4--4--
A |---4---0--4---0--4-------4----------------------6------------------4---0--4---0--4--------4----------------------6------------
D |---------------------------------------------6----------------------------------------------------------------6---------------
G |------------------------------------------------------------------------------------------------------------------------------
B |------------------------------------------------------------------------------------------------------------------------------


::Pre-Coro::

E |------------------2-------2---------------------3-------3----------0--0---0-------0--0--0--0-------0-------
A |---2--2--2---2--------2-------2-------3--3--3-------3-------3-------------------------------------------5--
D |------------------------------------------------------------------------------2-----------------2----------
G |-----------------------------------------------------------------------------------------------------------
B |-----------------------------------------------------------------------------------------------------------


::Coro::

E |---2s3---3--3-------------2--2----0------------0--0--------------------5---5-------------5--------
A |-----------------------5--------------------------------------3---3-------------5--5----------5---
D |-------------------5--------------------2---------------2-----------------------------------------
G |--------------------------------------------------------------------------------------------------
B |--------------------------------------------------------------------------------------------------


::Quiero Volar...::

E |---5---5---------------------------------------------5-----------------------------
A |--------------------7-------5-----5----5----5---------------------7----5-----------
D |-------------7-----------------------------------------------7---------------------
G |-----------------------------------------------------------------------------------
B |-----------------------------------------------------------------------------------


::Puente::

E |---------------------------------------------------------------------------------------------------------------------------
A |--------------------------------------3---3--3------3--3---3--3------------------------------------------------------------
D |---2---2--2------2--2---2--2----------------------------------------2---2--2-----2--2---2--2-------3---3--3-----3--3--3--3-
G |---------------------------------------------------------------------------------------------------------------------------
B |---------------------------------------------------------------------------------------------------------------------------


             POR FIN PUDE SACAR ESTAS FIGURAS; SI QUIEREN CORREGIRLE ALGO ESCRÍBANME...


                               G O  B L E S  Y O U  ! ! !

            
            
Suggest correction
Creating personal tab
Creating personal tab
You can edit any tab online and save it as your Personal.

You can edit, replace or remove any tab part or add personal notes – all changes will be seen only by you.

Personal tabs can be accessed anytime from any device, even offline.
Learn more »
Give kudos to tab author, rate the tab!
1 2 3 4 5
comments
print report bad tab
guest
Wanna post a correction for this tab? Suggest correction