Oops, an error
Loading. Please wait.

Siempre Seremos Amigos tab

by Rojo
73 views 1 this week
no commentswrite comment
1 2 3 4 5
2 more votes to show rating
add to favorites
×
Save as Personal and add changes to this tab that will be seen only by you. Learn more ›
×
You can save this tab as Personal to edit and correct it or add notes. All changes will be seen only by you. Learn more »
launch autoscroll
font size
0
reset
how to read this tab
guitar tuner
edit
Autoscroll
slow
fast
+/-
esc
set tempo
stop
Desde Villa la angostura, Neuquén. Arg.

Este es un gran tema ?Siempre seremos amigos? de RoJO!!!
Y esta muy bueno y mas en este día tan especial como-
¡¡¡El día de la amistad!!! Ojalá les guste.

Intro:

      G           D           Em          D    C
e|----7--7-5-7-----5--5-3-5------3--3-2-3------2----
B|------------------------------------------2/3--5--   Se repite
G|--7----7-7-7---7----7-4-7----4----4-2-4----------- 2 (Dos) veces
D|--------------------------------------------------
A|--------------------------------------------------
E|--------------------------------------------------


G          D                       Em
Es muy diferente lo que hay que vivir
G          D                  Em
A veces te cansas de tanto correr
Bm          C                   G
Entre las paredes de esta sociedad
     D    Em       D    C
Sin encontrar fiel amistad.

G            D              Em
Qué bueno tener amigos como tú
G                   D                  Em
Que no esconden la luz debajo de un cajón
Bm             C                  G
Que dicen las cosas que hay que decir
      D      Em    D      C
Porque es mejor para los dos.


Coro
G                 Bm        Em  C
Siempre seremos amigos tú y yo
G                  Bm         Em  C
Tiempo y distancia nada cambiará
G                 Bm        Em
Siempre seremos amigos tú y yo
        C           Am
Lo he podido comprobar
       Em          C               G
No es fácil de romper nuestra amistad.

Interludio:
   G           D           Em          D    C
e|----7--7-5-7-----5--5-3-5------3--3-2-3------2----
B|------------------------------------------2/3--5--
G|--7----7-7-7---7----7-4-7----4----4-2-4-----------
D|--------------------------------------------------
A|--------------------------------------------------
E|--------------------------------------------------

G           D                    Em
El mundo egoísta te enseña un patrón
G          D                 Em
Al no recibir solo dejan de dar
Bm           C                   G
Pero ya escapamos de esa esclavitud
  D      Em     D    C
Podemos dar sin recibir.


G            D                      Em
Qué bueno saber que el amor que me das
G            D                 Em
Es el que Jesús puso en tu corazón
Bm                C
Que fluye en tus actos diciéndome
 G  D           Em      D   C
Que su amor por mí es realidad.


Coro

Interludio con distorción
     Em       F                 C          Am
e|-------------------------------------------------3-----
B|-------------------------------------3------3-5~--5----
G|--2/4--2-4~--5p4-5p4-5p4------2-4-5~--5~---5-----------
D|------------------------3~--3------------5-------------
A|-------------------------------------------------------
E|-------------------------------------------------------

     Em       F                 C          Am
e|-------------------------------------------------3-----
B|-------------------------------------3------3-5~--5--3-
G|--2/4--2-4~--5p4-5p4-5p4------2-4-5~--5~---5-----------
D|------------------------3~--3------------5-------------
A|-------------------------------------------------------
E|-------------------------------------------------------


//Coro// (Se repite 2 veces)

Luego viene
Interludio Final
   G           D           Em          D    C
e|----7--7-5-7-----5--5-3-5------3--3-2-3------2----
B|------------------------------------------2/3--5--
G|--7----7-7-7---7----7-4-7----4----4-2-4-----------
D|--------------------------------------------------
A|--------------------------------------------------
E|--------------------------------------------------

FIN


Bueno espero q les aya gustado y creeria q esta bien sacado
El tema, un saludo a todos mis amigos, amistades, familia y
Miembros de la Iglesia  Misión Iglesia del Señor, en
Villa la Angostura, Neuquén. Arg.
Y asi a todos.. les dejos les deseo la mas grande bendición
Y cualkier duda contactarse con migo o escribirme,
Aki les dejo mis MSM.:

Jimmy_kpox100pre@
jaimevla@

Chau los Amo a todos

JAIME. A. SOTO

            
            
Suggest correction
Creating personal tab
Creating personal tab
You can edit any tab online and save it as your Personal.

You can edit, replace or remove any tab part or add personal notes – all changes will be seen only by you.

Personal tabs can be accessed anytime from any device, even offline.
Learn more »
Give kudos to tab author, rate the tab!
1 2 3 4 5
comments
print report bad tab
guest
Wanna post a correction for this tab? Suggest correction