Oops, an error
Loading. Please wait.

Soy Tuyo Hoy bass

by Rojo
50 views 1 this week
no commentswrite comment
1 2 3 4 5
3 more votes to show rating
add to favorites
×
Save as Personal and add changes to this tab that will be seen only by you. Learn more ›
×
You can save this tab as Personal to edit and correct it or add notes. All changes will be seen only by you. Learn more »
launch autoscroll
font size
0
reset
guitar tuner
edit
Autoscroll
slow
fast
+/-
esc
set tempo
stop
aca esta bien la cancion
en su octava jeje
en el x2 solo repiten eesas tres cositas debajo
solo eso espero les ayude

Intro
E|------|---|----|
A|--3-0-|---|----| x8
D|------|-3-|-2--|
G|------|---|----|

Junto a ti
     x2       x2                      x2
E|--------|-0-4---|---1-5-|-0-4---|--------|
A|--0-3---|-----2-|-5-----|-----2-|-0------|x2
D|------2-|-------|-------|-------|---3-2--|
G|--------|-------|-------|-------|--------|

Lo que soñaste
E|--1---1-|-3---3-|-4---4-|-5------|
A|----3---|---5---|---7---|---7----|
D|--------|-------|-------|-----7--|
G|--------|-------|-------|--------|

Existo
E|--1---1-|-3---3-|-0-----|-0------|
A|----3---|---5---|---2---|-----2--|
D|--------|-------|-----2-|---2----|
G|--------|-------|-------|--------|

Te amo
E|-------|---|------|------|---|-00----|
A|--0-00-|-3-|-33-3-|-5-55-|-7-|-------|x2
D|-------|---|---5--|------|---|----2--|
G|-------|---|------|------|---|-------|

Sere
E|-------|-------|-3-33--|-0-00--|--------|-1-11-|-10-00-|-0--|
A|--0-00-|-05-55-|-------|-------|-0-00-0-|------|-------|----|
D|-------|-------|-----5-|-----2-|--------|------|-------|----|
G|-------|-------|-------|-------|--------|------|-------|----|

E|------|---|----|
A|--3-0-|---|----| x4
D|------|-3-|-2--|
G|------|---|----|

Solo en ti
     x2       x2                      x2
E|--------|-0-4---|---1-5-|-0-4---|--------|
A|--0-3---|-----2-|-5-----|-----2-|-0------|x2
D|------2-|-------|-------|-------|---3-2--|
G|--------|-------|-------|-------|--------|

Yo quiero
E|--1---1-|-3---3-|-4---4-|-5------|
A|----3---|---5---|---7---|---7----|
D|--------|-------|-------|-----7--|
G|--------|-------|-------|--------|

Respiro
E|--1---1-|-3---3-|-0-----|-0------|
A|----3---|---5---|---2---|-----2--|
D|--------|-------|-----2-|---2----|
G|--------|-------|-------|--------|

Te amo
E|-------|---|------|------|---|-00----|
A|--0-00-|-3-|-33-3-|-5-55-|-7-|-------|x2
D|-------|---|---5--|------|---|----2--|
G|-------|---|------|------|---|-------|

Sere
E|--0-----|------|-3-33-|-0-00-|-0-----|--1-11-|--10-00--|-0--|
A|---0-00-|-5-55-|------|------|--0-00-|-0-----|---------|----|
D|--------|------|------|------|-------|-------|-3-----2-|----|
G|--------|------|------|------|-------|-------|---------|----|

Con mi vida
E|----|---|---|---|---|---|---|-55---|
A|----|---|---|---|---|---|---|------|
D|--3-|-4-|-3-|-4-|-5-|-6-|-7-|------|
G|----|---|---|---|---|---|---|---7--|

E|-------|---|------|------|---|-00----|
A|--0-00-|-3-|-33-3-|-5-55-|-7-|-------|x2
D|-------|---|---5--|------|---|----2--|
G|-------|---|------|------|---|-------|

Sere
E|-------|-------|-3-33--|-0-00-|-0-----|--1-11-|--10-00--|-00-003--|
A|--0-00-|-05-55-|-------|------|--0-00-|-0-----|---------|---------|
D|-------|-------|-----5-|------|-------|-------|-3-----2-|---------|
G|-------|-------|-------|------|-------|-------|---------|---------|

Te amo
E|-------|---|------|------|---|-00----|
A|--0-00-|-3-|-33-3-|-5-55-|-7-|-------|x2
D|-------|---|---5--|------|---|----2--|
G|-------|---|------|------|---|-------|

Sere
E|-------|-------|--3-33-|-0-00-|------|-1-11--|-0-00--|-0---|
A|--0-00-|-05-55-|-5-----|------|-0-00-|-------|-------|-----|
D|-------|-------|-------|------|------|-----3-|-----2-|---2-|
G|-------|-------|-------|------|------|-------|-------|-----|

E|-----|---|----|
A|--00-|---|----| x4
D|-----|-3-|-2--|
G|-----|---|----|

E|-----|
A|--0--|
D|-----|
G|-----|

atte. miauricio gatolar

            
            
Suggest correction
Creating personal tab
Creating personal tab
You can edit any tab online and save it as your Personal.

You can edit, replace or remove any tab part or add personal notes – all changes will be seen only by you.

Personal tabs can be accessed anytime from any device, even offline.
Learn more »
Give kudos to tab author, rate the tab!
1 2 3 4 5
comments
print report bad tab
guest
Wanna post a correction for this tab? Suggest correction