Oops, an error
Loading. Please wait.

Tu, Yo bass

by Rojo
17 views 1 this week
no commentswrite comment
1 2 3 4 5
3 more votes to show rating
add to favorites
×
Save as Personal and add changes to this tab that will be seen only by you. Learn more ›
×
You can save this tab as Personal to edit and correct it or add notes. All changes will be seen only by you. Learn more »
launch autoscroll
font size
0
reset
guitar tuner
edit
Autoscroll
slow
fast
+/-
esc
set tempo
stop
Primero es el intro
este no entra con bass entra solo
y despues el primer verso es sin bass

Aunque nadie este aquí a mi lado.......

E-----------------------|-6-5-6-6--2-3-4-4?|-3-2-3-3--0-1-1-1---------|
A-6-6--5-4-5-5--1-2-3-3-|------------------|------------------1--0-1-1|
D-----------------------|------------------|--------------------------|
G-----------------------|------------------|--------------------------|

Coro
Tu, concentras el amor...

E------------------|5--5-5--5-5-----5|
A-3--3-3--3-3-----3|------------3-7--|
D-------------2-5--|-----------------|
G------------------|-----------------|

E-1--1-1--1-1-----1|-------------------|
A-------------0-3--|3--3-3--3-3---5--3-|
D------------------|------------5------|
G------------------|-------------------|

Yo, te amo con fervor....

E-------------------|-5--5-5--5-5-----5-|-1--1-1--1-1-----1-|-----|
A-3--3-3--3-3-----3-|-------------3-7---|-------------0-3---|-3-3-|
D-------------2-5---|-------------------|-------------------|-----|
G-------------------|-------------------|-------------------|-----|

Aquí para la música y luego
Ya esta empezando a gustarme.......

E-----|
A-3-5-|
D-----|
G-----|

E-----------------------|-6-5-6-6--2-3-4-4?|-3-2-3-3--0-1-1-1---------|
A-6-6--5-4-5-5--1-2-3-3-|------------------|------------------1--0-1-1|
D-----------------------|------------------|--------------------------|
G-----------------------|------------------|--------------------------|

Y estoy de ti tan enamorado......

E-----------------------|-6-5-6-6--2-3-4-4?|-3-2-3-3--0-1-1-1---------|
A-6-6--5-4-5-5--1-2-3-3-|------------------|------------------1--0-1-1|
D-----------------------|------------------|--------------------------|
G-----------------------|------------------|--------------------------|

Coro
Tu, concentras el amor...

E------------------|5--5-5--5-5-----5|
A-3--3-3--3-3-----3|------------3-7--|
D-------------2-5--|-----------------|
G------------------|-----------------|

E-1--1-1--1-1-----1|-------------------|
A-------------0-3--|3--3-3--3-3---5--3-|
D------------------|------------5------|
G------------------|-------------------|

Yo, te amo con fervor....

E-------------------|-5--5-5--5-5-----5-|-1--1-1--1-1-----1-|-----|
A-3--3-3--3-3-----3-|-------------3-7---|-------------0-3---|-3-3-|
D-------------2-5---|-------------------|-------------------|-----|
G-------------------|-------------------|-------------------|-----|


Lunes a domingo conquistas mi mundo....

E-3-3--5-5--1-1-----------5-|-3-3--5-5--5-6--|
A---------------1--1----1---|----------------|
D---------------------------|----------------|
G--------------------5------|----------------|

Y después se sigue repitiendo el coro
Hasta que acaba la canción

Bueno espero que les sirva
Y dios los Bendiga

            
            
Suggest correction
Creating personal tab
Creating personal tab
You can edit any tab online and save it as your Personal.

You can edit, replace or remove any tab part or add personal notes – all changes will be seen only by you.

Personal tabs can be accessed anytime from any device, even offline.
Learn more »
Give kudos to tab author, rate the tab!
1 2 3 4 5
comments
print report bad tab
guest
Wanna post a correction for this tab? Suggest correction