Oops, an error
Loading. Please wait.

What I Like About You bass

version 3
version 3

Whole song

Interactive

32,701 views 66 this week
9 commentsread comments
1 2 3 4 5
x 11
add to favorites
×
Save as Personal and add changes to this tab that will be seen only by you. Learn more ›
×
You can save this tab as Personal to edit and correct it or add notes. All changes will be seen only by you. Learn more »
launch autoscroll
font size
0
reset
guitar tuner
backing track
0:00
0:00
edit
Autoscroll
slow
fast
+/-
esc
set tempo
stop
Author
A classic by The Romantics

Tabbed by: BASSteve

Tuning: EADG

Time signature: 8/8

*My tabs are meant to be read in conjunction with listening to the song.
In other words, there are no specific notations to account for note/rest duration. 
However, you will find that I've made an attempt to strategically space the notes 
and rests within their respective measures in order to represent the appropriate 
durations.


[Verse/Chorus]
 
G||--------------------------------||--------------------------------|
D||--------------------------------||--------------------------------|
A||----------------5-0-5-5---------||----------------5-5-5-5-5-5-5-5-|
E||0---0-7-5-----5---------5-7-5-7-||0---0-7-5-----5-----------------|(x21)(with variation)


[Solo]

G|--------------------------------|--------------------------------|
D|5-----5-5-----5-----------------|5-----5-5-----5-7---------------|
A|----------------5-----5-5-----5-|--------------------------------|
E|--------------------------------|--------------------------------|

G|----------------------------------|--------------------------------|
D|{7}-------------------------------|--------------------------------|
A|--------------------7-r-----------|--------------------------------|
E|----------------5/7-----7-----5/7-|7-7-7-7-7-7-7-7-7-7-7-7-7-7-7-7-|


[Harmonica Solo/Verse/Chorus]

G||--------------------------------||--------------------------------|
D||--------------------------------||--------------------------------|
A||----------------5-0-5-5---------||----------------5-5-5-5---------|
E||0---0-7-5-----5---------5-7-5-7-||0---0-7-5-----5---------5---5-r-|(x27)(with variation)



************************************

| r  rest (listen for duration)
| /  slide (low to high)
| {} note inside pointed parenthesis still ringing from previous measure
| || measure gets repeated (see number of times above measure, e.g. 4x) 

************************************

            
            
Suggest correction
Creating personal tab
Creating personal tab
You can edit any tab online and save it as your Personal.

You can edit, replace or remove any tab part or add personal notes – all changes will be seen only by you.

Personal tabs can be accessed anytime from any device, even offline.
Learn more »
comments
print report bad tab
9 comments total. Showing first comments.
0 reply
btkircher 188 Mar 12, 2013 02:01 PM

"*My tabs are meant to be read in conjunction with listening to the song."

Then why is your tab in the wrong key?

-1 reply
BASSteve 1,495 Apr 05, 2013 04:35 PM

I don't know btkircher, why don't you tell me what you think the right key is and then I can prove you wrong more specifically ?

-1 reply
titaniumman 10 Nov 03, 2013 05:33 AM

Tab is in the key of the recording I have. Different key is not wrong anyway.

guest
You may want to rate the tab now too:
select rating
Wanna post a correction for this tab? Suggest correction