Oops, an error
Loading. Please wait.

Youre The Reason I Come Home tab

12,995 views 18 this week
2 commentsread comments
1 2 3 4 5
x 13
add to favorites
×
Save as Personal and add changes to this tab that will be seen only by you. Learn more ›
×
You can save this tab as Personal to edit and correct it or add notes. All changes will be seen only by you. Learn more »
launch autoscroll
font size
0
reset
how to read this tab
guitar tuner
edit
Autoscroll
slow
fast
+/-
esc
set tempo
stop
I've updated this in order to put in the small details that I missed 9 months ago. Let me know if have 
any corrections because this is not 100% accurate, just how I like playing it! Listen to this: 
https://www.youtube.com/watch?v=ZH7-WtJuyQc to find the strumming pattern and timing. :)

----------------------------------------------------------------------------
                YOU'RE THE REASON I COME HOME - Ron Pope
----------------------------------------------------------------------------
Tabbed by: Jada Frederick
E-mail: jaybay6@yahoo.com

Tuning: Standard

{Capo on 4th and/or 5th}

Intro:

e|----------------------0-------------------------------------1--1-----|
B|----------------------1----------1---------1---------1------1--1-----|
G|---0------0--0--------2---2-----0--------0---------2--------2--2-----|
D|----------------------2-------2--------0---------3----------3--3-----|
A|-----3-----3---3-2-0--0-----0-------------------------------3--3-----|
E|----------------------0------------3-3-------1-1-------1----1--1-----|
                        Am                                    F  F   

Verse 1

Watching you watching me...
                                               (all in one strum)
e|--------0------------0---------3-------1--1-----0-------------------|
B|--------1------------1----1----3-------1--1-----1-------------------|
G|--------0---0--------2---------0-------2--2-----0h2p0---------------|
D|--------2------------2---------0-------3--3-----3----3p0------------|
A|---3----3-----3-2-0--0---------2-------3--3-------------------------|
E|--------x------------0------3--3----1--1--1-------------------------|  x2
          C            Am        G       F  F     
(Listen for timing and strumming pattern here)


Chorus

You're the reason I come home...

e|-----1------3-------------------------1--|
B|-----1------3------------1--3--1------1--|
G|-----2------0--------0-----------0----2--|
D|-----3------0----------2-----------3--3--|
A|-----3------2---3--3------------------3--|
E|--1--1---3--3-------------------------1--|
       F      G       (C formation)     F


You're the reason I come home, my love...

e|-------3---------------------1--|
B|-------3-----1--1--1---------1--|
G|-------0---------------------2--|
D|-------0---------------------3--|
A|-------2---3--2--0-----------3--|
E|----3--3--------------0h3-1--1--|
         G                     F   



You're the reason that when everything I know falls apart..

e|----3------------------1---|
B|----3----1--1---1------1---|
G|----0------------------2---|
D|----0------------------3---|
A|----2---0--2--3--------3---|
E|-3--3-------------3-1--1---|
      G                  F



You're the reason I come home...

e|-----3----------0-----|
B|-----3-----------1----|
G|-----0------0-----0---|
D|-----0--------2----2--|
A|-----2---3-3--------3-|
E|--3--3----------------|
       G


Verse 2

Paper doll silhouettes, fingertips on window glass..

                                               (all in one strum)
e|--------0------------0---------3-------1--1-----0-------------------|
B|--------1------------1----1----3-------1--1-----1-------------------|
G|--------0---0--------2---------0-------2--2-----0h2p0---------------|
D|--------2------------2---------0-------3--3-----3----3p0------------|
A|---3----3-----3-2-0--0---------2-------3--3-------------------------|
E|--------x------------0------3--3----1--1--1-------------------------|   x2
          C            Am        G       F  F     



Chorus

You're the reason I come home...

e|-----1------3-------------------------1--|
B|-----1------3------------1--3--1------1--|
G|-----2------0--------0-----------0----2--|
D|-----3------0----------2-----------3--3--|
A|-----3------2---3--3------------------3--|
E|--1--1---3--3-------------------------1--|
       F      G       (C formation)     F


You're the reason I come home, my love...

e|-------3---------------------1--|
B|-------3-----1--1--1---------1--|
G|-------0---------------------2--|
D|-------0---------------------3--|
A|-------2---3--2--0-----------3--|
E|----3--3--------------0h3-1--1--|
         G                     F   



You're the reason that when everything I know falls apart..

e|----3-----------------1---|
B|----3----1--1--1------1---|
G|----0-----------------2---|
D|----0-----------------3---|
A|----2---0--2--3-------3---|
E|-3--3------------3-1--1---|
      G                F



You're the reason I come home...

e|-----3------0--0--0--------|
B|-----3------1--1--1--------|
G|-----0------0--0--0--------|
D|-----0------2--2--0h2p0----|
A|-----2------3--3--3----p0--|
E|--3--3------x--x--x--------|
       G      C  C  C


Bridge

For a long time I remember, saying prayers for something perfect...
e|------1-------3------0-------0------1--|
B|------1-------3------1-------1------1--|
G|------2-------0------0-------2------2--|
D|------3-------0------2-------2------3--|
A|------3-------2---3--3----0--0------3--|
E|---1--1----3--3------x-------0---1--1--|
        F       G      C      Am     F


Saying prayers for someone kind..

e|------3-----0---0---0---0------|
B|------3-----1---1---1---1------|
G|------0-----0---0---0---0------|
D|------0-----2---2---2---2------|
A|------2-----3---3---3---0h3----|
E|---3--3-----x---x---x---x------|
        G     C   C   C


It's in my head, spinning circle down the avenue instead..

e|-----1-----3----------------1------3------0--------|
B|-----1-----3---1--1--1------1------3--------1------|
G|-----2-----0----------------2------0----------0----|
D|-----3-----0----------------3------0---------------|
A|-----3-----2--0--2--3-------3------2----0----------|
E|---1-1---3-3------------3-1-1------3---------------|
       F     G                 F     G              


Chorus

You're the reason I come home...

e|-----1------3-------------------------1--|
B|-----1------3------------1--3--1------1--|
G|-----2------0--------0-----------0----2--|
D|--3--3------0----------2-----------3--3--|
A|-----3------2---3--3------------------3--|
E|--1--1----3-3-------------------------1--|
       F      G       (C formation)     F


You're the reason I come home, my love...

e|-----3------------------1--|
B|-----3----1--1--1-------1--|
G|-----0------------------2--|
D|-----0------------------3--|
A|-----2---3--2--0--------3--|
E|---3-3-----------0h3-1--1--|
       G                  F   



You're the reason that when everything I know falls apart..

e|----3--------------1---|
B|----3--------------1---|
G|----0--------------2---|
D|----0--------------3---|
A|----2---0-2-3------3---|
E|-3--3---------0-1--1---|
      G              F


You're the reason I come home...

e|----3-------------------------1--|
B|----3------------1--3--1------1--|
G|----0--------0-----------0----2--|
D|----0----------2-----------3--3--|
A|----2---3--3------------------3--|
E|-3--3-------------------------1--|
      G       (C formation)     F


You're the reason I come home...

e|------3-----0---0---|
B|------3-----1---1---|
G|------0-----0---0---|
D|------0-----2---0h2-|
A|------2-----3---3---|
E|---3--3-----x---x---|
        G     C   C



************************************

| /   slide up
| \   slide down
| h   hammer-on
| p   pull-off
| ~   vibrato
| +   harmonic
| x   Mute note
| b   Bend
| pb  Pre-bend
| br  Bend release
| pbr Pre-bend release
| brb Bend release bend

************************************

            
            
Suggest correction
Creating personal tab
Creating personal tab
You can edit any tab online and save it as your Personal.

You can edit, replace or remove any tab part or add personal notes – all changes will be seen only by you.

Personal tabs can be accessed anytime from any device, even offline.
Learn more »
comments
print report bad tab
2 comments total.
0 reply
LillaMartin 737 Nov 11, 2014 01:40 AM

Dam i was so confused. I have been playing along this tab for so long and suddenly there was a new pattern and was like... My brain expload!

Cudos for going back and update though! :) Very nice.

0 reply
jbaefrederick 95 Nov 11, 2014 03:26 PM

Thank you :) I know what you mean though! I recently re-listened to the song and really paid attention, a part of me didn't even want to fix it because I was so used to my other way LOL

If you'd like I could message you the old version, it's missing a bit but it still sounds good :)

guest
You may want to rate the tab now too:
select rating
Wanna post a correction for this tab? Suggest correction