Oops, an error
Loading. Please wait.

Let Me Love You bass

316 views 15 this week
no commentswrite comment
1 2 3 4 5
3 more votes to show rating
add to favorites
×
Save as Personal and add changes to this tab that will be seen only by you. Learn more ›
×
You can save this tab as Personal to edit and correct it or add notes. All changes will be seen only by you. Learn more »
launch autoscroll
font size
0
reset
guitar tuner
edit
Autoscroll
slow
fast
+/-
esc
set tempo
stop
Author
Difficulty
[Verse]

G|-------------------------------------------------------------------------------------------------|
D|-------------------------------------------------------------------------------------------------|
A|-------------------------------------------------------------------------------------------------|
E|-------------------------------------------------------------------------------------------------|

G|-------------------------------------------------------------------------------------------------|
D|-------------------------------------------------------------------------------------------------|
A|-------------------------------------------------------------------------------------------------|
E|-------------------------------------------------------------------------------------------------|

G|-------------------------------------------------------------------------------------------------|
D|-------------------------------------------------------------------------------------------------|
A|-6-----------------------4----------/8-----------6-----------------------4-----------6-----------|
E|-------------------------------------------------------------------------------------------------|

G|------------------------|
D|-------------6----------|
A|-8----------------------|
E|------------------------|

[Chorus]

G|-------------------------------------------------------------------------------------------------|
D|-------------------------------------------------------------------------------------------------|
A|-------------------------------------------6-----4-----------------------------------------------|
E|-4-----------------------------------------------------------------------4-----------------------|

G|-------------------------------------------------------------------------------------------------|
D|-------------------------------------------------------------------------------------------------|
A|-4-----------------4----/8-----------------------6-----------8-----------4-----------------------|
E|-------------------------------------------------------------------------------------------------|

G|-------------------------|
D|-------------------------|
A|-4-----------6-----------|
E|-------------------------|

[Interlude]

G|-------------------------------------------------------------------------------------------------|
D|-------------------------------------------------------------------------------------------------|
A|-------------------------------------------------------------------------4-4-4-4-4-4-4-4-4-4-4-4-|
E|-4-4-4-4-4-4-4-4-4-4-4-4-4-4-4-4-4-4-4-4-4-4-4-4-1-1-1-1-1-1-1-1-1-1-1-1-------------------------|

[Verse]
   
G|-------------------------------------------------------------------------------------------------|
D|-------------------------------------------------------------------------------------------------|
A|-------------------------------------------------------------------------4-4-4-4-4-4-4-4-4-4-4-4-|
E|-4-4-4-4-4-4-4-4-4-4-4-4-4-4-4-4-4-4-4-4-4-4-4-4-1-1-1-1-1-1-1-1-1-1-1-1-------------------------|

G|-------------------------------------------------------------------------------------------------|
D|-------------------------------------------------------------------------------------------------|
A|-------------------------------------6-6-6-6-6-6-8-8-8-8-8-8-8-8-8-8-8-8-4-4-4-4-4-4-4-4-4-4-4-4-|
E|-4-4-4-4-4-4-6-6-6-6-6-6-8-8-8-8-8-8-------------------------------------------------------------|

G|-------------------------------------------------------------------------------------------------|
D|-------------------------------------------------------------------------------------------------|
A|-6-6-6-6-6-6-6-6-6-6-6-6-4-4-4-4-4-4-8-8-8-8-8-8-6-6-6-6-6-6-6-6-6-6-6-6-4-4-4-4-4-4-6-6-6-6-6-6-|
E|-------------------------------------------------------------------------------------------------|

G|-------------------------|
D|-------------6-6-6-6-6-6-|
A|-8-8-8-8-8-8-------------|
E|-------------------------|

[Chorus]

G|-------------------------------------------------------------------------------------------------|
D|-------------------------------------------------------------------------------------------------|
A|-------------------------------------------------4-4-4-4-4-4-4-4-4-4-4-4-------------------------|
E|-4-4-4-4-4-4-4-4-4-4-4-4-4-4-4-4-4-4-4-4-4-4-4-4-------------------------4-4-4-4-4-4-4-4-4-4-4-4-|

G|-------------------------------------------------------------------------------------------------|
D|-------------------------------------------------------------------------------------------------|
A|-4-4-4-4-4-4-4-4-4-4-4-4-8-8-8-8-8-8-8-8-8-8-8-8-6-6-6-6-6-6-8-8-8-8-8-8-4-4-4-4-4-4-4-4-4-4-4-4-|
E|-------------------------------------------------------------------------------------------------|

G|-------------------------------------------------------------------------------------------------|
D|-------------------------------------------------------------------------------------------------|
A|-------------------------------------------------4-4-4-4-4-4-4-4-4-4-4-4-8-8-8-8-8-8-8-8-8-8-8-8-|
E|-4-4-4-4-4-4-4-4-4-4-4-4-4-4-4-4-4-4-4-4-4-4-4-4-------------------------------------------------|

G|-------------------------|
D|-------------------------|
A|-6-6-6-6-6-6-6-6-6-6-6-6-|
E|-------------------------|

[Interlude]

G|-------------------------------------------------------------------------------------------------|
D|-------------------------------------------------------------------------------------------------|
A|-------------------------------------------------4-4-4-4-4-4-4-4-4-4-4-4-------------------------|
E|-4-4-4-4-4-4-4-4-4-4-4-4-4-4-4-4-4-4-4-4-4-4-4-4-------------------------4-4-4-4-4-4-4-4-4-4-4-4-|

G|-------------------------------------------------------------------------------------------------|
D|-------------------------------------6-6-6-6-6-6-------------------------------------------------|
A|-4-4-4-4-4-4-4-4-4-4-4-4-8-8-8-8-8-8-------------------------------------------------------------|
E|-------------------------------------------------4-4-4-4-4-4-4-4-4-4-4-4-4-4-4-4-4-4-4-4-4-4-4-4-|

G|-------------------------------------------------------------------------------------------------|
D|-------------------------------------------------------------------------------------6-6-6-6-6-6-|
A|-4-4-4-4-4-4-4-4-4-4-4-4-------------------------4-4-4-4-4-4-4-4-4-4-4-4-8-8-8-8-8-8-------------|
E|-------------------------4-4-4-4-4-4-4-4-4-4-4-4-------------------------------------------------|

[Chorus]

G|-------------------------------------------------------------------------------------------------|
D|-------------------------------------------------------------------------------------------------|
A|-------------------------------------------------4-4-4-4-4-4-4-4-4-4-4-4-------------------------|
E|-4-4-4-4-4-4-4-4-4-4-4-4-4-4-4-4-4-4-4-4-4-4-4-4-------------------------4-4-4-4-4-4-4-4-4-4-4-4-|

G|-------------------------------------------------------------------------------------------------|
D|-------------------------------------------------------------------------------------------------|
A|-4-4-4-4-4-4-4-4-4-4-4-4-8-8-8-8-8-8-8-8-8-8-8-8-6-6-6-6-6-6-8-8-8-8-8-8-4-4-4-4-4-4-4-4-4-4-4-4-|
E|-------------------------------------------------------------------------------------------------|

G|-------------------------------------------------------------------------------------------------|
D|-------------------------------------------------------------------------------------------------|
A|-------------------------------------------------4-4-4-4-4-4-4-4-4-4-4-4-------------------------|
E|-4-4-4-4-4-4-4-4-4-4-4-4-4-4-4-4-4-4-4-4-4-4-4-4-------------------------4-4-4-4-4-4-4-4-4-4-4-4-|

G|-------------------------------------------------------------------------------------------------|
D|-------------------------------------------------------------------------------------------------|
A|-4-4-4-4-4-4-4-4-4-4-4-4-8-8-8-8-8-8-8-8-8-8-8-8-6-6-6-6-6-6-8-8-8-8-8-8-4-4-4-4-4-4-4-4-4-4-4-4-|
E|-------------------------------------------------------------------------------------------------|

G|-------------------------------------------------|
D|-------------------------------------------------|
A|-6-6-6-6-6-6-8-8-8-8-8-8-8-8-8-8-8-8-8-8-8-8-8-8-|
E|-------------------------------------------------|

[Outro]

G|-------------------------------------------------------------------------------------------------|
D|-------------------------------------------------------------------------------------------------|
A|-------------------------------------------------------------------------------------------------|
E|-4-----------------------------------------------1-----------------4----/9-----------------------|

G|-------------------------------------------------------------------------------------------------|
D|-------------------------------------------------------------------------------------------------|
A|-------------------------------------------------------------------------------------------------|
E|-4-----------------------------------------------1-----------------4----/9-----------------------|

G|-------------------------------------------------------------------------------------------------|
D|-------------------------------------------------------------------------------------------------|
A|-------------------------------------------------------------------------------------------------|
E|-4-----------------------------------------------------------------------------------------------|

************************************

| /   Slide up

************************************

            
            
Suggest correction
Creating personal tab
Creating personal tab
You can edit any tab online and save it as your Personal.

You can edit, replace or remove any tab part or add personal notes – all changes will be seen only by you.

Personal tabs can be accessed anytime from any device, even offline.
Learn more »
Give kudos to tab author, rate the tab!
1 2 3 4 5
comments
print report bad tab
guest
You may want to rate the tab now too:
select rating
Wanna post a correction for this tab? Suggest correction