Oops, an error
Loading. Please wait.

Llorando Por Tu Amor tab

40 views 1 this week
no commentswrite comment
1 2 3 4 5
3 more votes to show rating
add to favorites
×
Save as Personal and add changes to this tab that will be seen only by you. Learn more ›
×
You can save this tab as Personal to edit and correct it or add notes. All changes will be seen only by you. Learn more »
launch autoscroll
font size
0
reset
how to read this tab
guitar tuner
edit
Autoscroll
slow
fast
+/-
esc
set tempo
stop
   Para que esta canción suene igual a la version del cd se debe de afinar
la guitarra como la trae Nicho Hinojosa o los de Sin Bandera y lleva el capo 
en el 2° traste y va así (versión del disco):


REQUINTO (solo son las 3 primeras cuerdas):

            Dm        E7             Am
G----------------------------------------------------
B-----1-3--------------------------------------------
e-0-0-----0-1---3-5-8-7---10-8-7-5-4-5---5-4-5-------

                     Dm G7            C      Am
   Llorando por tu amor    camino junto a tí,
            Dm    E7               Am
pidiendote perdón    solloza el corazón,
                  Dm G7                C    Am
las penas que te dí    se vuelven contra mí,
                Dm E7                A
y de ese amor quedó  tu llanto y mi sufrir.


                       Bm  E             A    A-G-F#7
   Y hoy me encuentro solo, tan solo y triste,
                   Bm  E                 A     A7 
viviendo entre sollozos es mas fría mi agonía,
    D   Bm     E                 A  F#7
llorando  me quedé esperando un día
                Bm      E              A
con los brazos abiertos  voy muriendo día a día...


REQUINTO:
              Bm      E     Bm      E     A               F#7  
G----------------------------------------------------------------
B-2-3-------------------------------------------3-------3-2------
e-----0-2-4-5-5-4-4-2-4---5-5-4-4-2-4---2-2-0-0---2-0-0----------


                Bm      E     Bm      E     A  
G-----------------------------------------------------------------
B-2-3-------------------------------------------------------------
e-----0-2-4---5-5-4-4-2-4---5-5-4-4-2-4---4-7-5-5-4---7-5-5-4-5---


                       Bm  E             A    A-G-F#7
   Y hoy me encuentro solo, tan solo y triste,
                   Bm  E                 A     A7 
viviendo entre sollozos es mas fría mi agonía,
    D   Bm     E                 A  F#7
llorando  me quedé esperando un día
                Bm      E              A
con los brazos abiertos  voy muriendo día a día...


REQUINTO:
              Bm      E     Bm      E     A               F#7  
G----------------------------------------------------------------
B-2-3-------------------------------------------3-------3-2------
e-----0-2-4-5-5-4-4-2-4---5-5-4-4-2-4---2-2-0-0---2-0-0----------


                Bm      E     Bm      E     A  
G-----------------------------------------------------------------
B-2-3-------------------------------------------------------------
e-----0-2-4---5-5-4-4-2-4---5-5-4-4-2-4---4-7-5-5-4---7-5-5-4-5---


   Para aquellos que tienen algo que decir y no son escuchados...
   Dudas, sugerencias, comentarios, peticiones, reclamos... mandame un e-mail.

            
            
Suggest correction
Creating personal tab
Creating personal tab
You can edit any tab online and save it as your Personal.

You can edit, replace or remove any tab part or add personal notes – all changes will be seen only by you.

Personal tabs can be accessed anytime from any device, even offline.
Learn more »
Give kudos to tab author, rate the tab!
1 2 3 4 5
comments
print report bad tab
guest
Wanna post a correction for this tab? Suggest correction