Oops, an error
Loading. Please wait.
34 views 1 this week
no commentswrite comment
1 2 3 4 5
3 more votes to show rating
add to favorites
×
Save as Personal and add changes to this tab that will be seen only by you. Learn more ›
×
You can save this tab as Personal to edit and correct it or add notes. All changes will be seen only by you. Learn more »
launch autoscroll
font size
0
reset
how to read this tab
guitar tuner
edit
Autoscroll
slow
fast
+/-
esc
set tempo
stop
   Esta es la versión del cd, son todos los arreglos y al final hay 2 guitarras,
pero indico donde entra una y donde le sigue la otra, y va así:


Requinto (solo son las tres primeras cuerdas, son dos guitarras pero la otra solo
toca el requinto con una sola cuerda que es la primera y son los mismos tonos, hay
partes donde lleva un arreglo con una sola guitarra e indico en que cuerda es y 
cual es el traste que se toca):

   Am B7     Em         Am           B7    Em
G---------------------------------------------------------------------------------
B-10-8-7-5-7-8---5-7-8-10-10_11-10-8-7-5-3-5--------------------------------------
e--8-7-5-3-5-7---3-5-7--8--8_10--8-7-5-3-2-3--------------------------------------

Poema: '¿Quien hará música de tu sonrisa?... ¿quien contigo hará el milagro del amor?,
      dime... dime quien...'

     Am       B7           Em                Am     B7          Em      
   ¿Quien?, cuando ya no aliente, silenciosamente llegará hasta tí,
             Am   D7             G     Em            Am     B7        Em     
y como el olvido ya te habrá vencido, le diras: 'querido', al igual que a mí,
  Am    B7           Em                        Am    B7           Em   
¿quien borrará mis huellas?, y encendiendo estrellas en la oscuridad,
           Am   D7            G    Em           Am    B7         Em    
abrirá balcones, romperá crespones y pondrá canciones en tu soledad.
G---------------------------------------------------------------------------------
B---------------------------------------------------------------------------------
e----------8-----5------------7-----3------------5-----2----------3---------------

     Am   D7         G Em   Am    B7             Em
   ¿Quien será mi relevo?, ¿quien te va a convencer?,
 Am     B7          Em   C               B7
¿quien volverá de nuevo, a reinar en tu ser?,
                      G----------------------------------------
                      B----------------------------------------
                      e--8----------------7--------------------
  Am       B7          Em                      Am      B7           Em       
¿quien?, cuando ya me ausente, va a cruzar el puente, que mandé cerrar?,
           Am    D7          G      Em            Am     B7         Em
y pondrá colores, en tus sinsabores, y te hará olvidar pronto mi pesar.


                Am           D7               G          Em   
   Yo tengo el doble de tu edad, mas no me importa sucumbir,
          Am        B7            Em  E7       
y ver de cara la verdad del porvenir,
           Am           D7              G           Em
no vistas luto por mi amor, pues no me gusta ser cruel,
           Am         B7              Em
y sé que nunca ese color le fué a tu piel.
                             G----------------------------------------
                             B----------------------------------------
                             e-------------0-2-3---3-5-7--------------


      Am     B7           Em                  Am  B7         Em           
   ¿Quien?, cuando yo me valla, llegará a tu playa un anochecer,
               Am D7      G            Em          Am     B7          Em    
y pondrá su empeño, en velarte el sueño y lo hará su dueño casi sin querer,
   Am   B7        Em                    Am    B7              Em
¿quien besara tu pelo?, ¿y en tu negro duelo te pondrá un clavel?,
          Am   D7          G      Em          Am     B7           Em       
y ya diferente te verá la gente, nueva y sonriente, como un cascabel.
G---------------------------------------------------------------------------------
B---------------------------------------------------------------------------------
e---------8-----5-----------7------3-----------5------2------------3--------------


      Am    B7          Em        Am     B7          Em
   ¿Quien viene a suplicarme?, ¿quien?, dime dulce bien,
  Am     B7         Em       C               B7
¿quien trata de borrarme?, ¿quien amó en tu sien?,
                      G----------------------------------------
                      B----------------------------------------
                      e------8----------------7----------------
  Am    B7        Em               Am     B7           Em      
¿quien por sustituírme, y por destruírme sin contemplación?,
              Am     D7             G     Em          Am     B7     
romperá en pedazos, todos nuestros lazos, y sin compasión...
                                                  G--------------
                                                  B--------------
                                                  e---5-3-5-3-2--
               C Am B7 Em
mi propio corazo-o--o--ón.
             G----------------------------------------
 Guitarra 1  B----------------------------------------
             e----8--5--7-----------------------------
 
             G----------------------------------------
 Guitarra 2  B----------------------------------------
             e----------3-2-3-5-7---------------------


   Estos son todos los arreglos que están en el cd, dudas, sugerencias,
comentarios, peticiones, invitaciones a salir... a mis correos...

            
            
Suggest correction
Creating personal tab
Creating personal tab
You can edit any tab online and save it as your Personal.

You can edit, replace or remove any tab part or add personal notes – all changes will be seen only by you.

Personal tabs can be accessed anytime from any device, even offline.
Learn more »
Give kudos to tab author, rate the tab!
1 2 3 4 5
comments
print report bad tab
guest
Wanna post a correction for this tab? Suggest correction