Oops, an error
Loading. Please wait.

Lo Peor De Todo tab

version 2
version 2

Whole song

35 views 1 this week
no commentswrite comment
1 2 3 4 5
3 more votes to show rating
add to favorites
×
Save as Personal and add changes to this tab that will be seen only by you. Learn more ›
×
You can save this tab as Personal to edit and correct it or add notes. All changes will be seen only by you. Learn more »
launch autoscroll
font size
0
reset
how to read this tab
guitar tuner
edit
Autoscroll
slow
fast
+/-
esc
set tempo
stop
Jaja otra rola mas de la misma rondalla
Mmm esta si me costo sacarla y sin albur el arpegio
No toma en cuenta la primera cuerda en algunas ocasiones.
Es una buena canción échenle ganas y ya saben
Dudas a mi correo michel_trovador@
No aceptó mentadas de madre. Arriba chivas
Saludos a olí que la extraño
LA TABLATURA ESTA HASTA ABAJO.
INTRO:   B  C#-/E  C#m  F#  E  F#  C#m   B  (2)

                            C#m            C#-/E

Se te fue el momento para amarme de la hora,
                           F#m        E  F#
Que quebrándome reviste a mi lo siento
  E           F#            B     C#-/E
Nada puedo hacer para esperarte ya se acaba
                 F#  F  E
En mi esta ilusión.

          F#m              B       C#-/E
Debes recordar que yo te ame eterno
                       B      F#
Que tu aliento me solías a perder
G          F#m            B                    C#m
Debes evocar quedando siempre me paso el tiempo
                 C#-/E      F#m
Y tu no diste nunca te limitaste a dejarte de amar.

B                                           C#m
Y ahora que tu no vienes no me quedo ya no hay mas amor
     C#-/E                                    F#m
La infinita ya no eres te has quedado por ti sola
 B                               C#-/E         C#m
Y lo peor  de todo es que te quiero si te quiero
                           F#m          B
Y lo peor de todo es este amor que siento.

(POEMA) = INTRO

HOY YA NO ES TIEMPO PARA MIRARNOS YA NO PUEDO
OCULTAR  MAS TU AMOR, YA NO PUEDO QUERERTE,
POR QUE ES INUTIL HABLAR MAS DE AMOR
DONDE SOLO HAY UN ENAMORADO, VETE, VETE PERO QUEDATE
DEJAME, DEJAME PERO AMAME ANQUE SEA POR UNA VEZ MAS.

Se que habia tanto por decirte en el momento
Que ahora ya es tarde para hablar de que
Para intentar sacarlo todo de la nada
Quien sostubo el algo nunca fuiste tu.

Puedes protestar por mi dureza te comprendo
Pero tu jamas me hisiste olvidar por que,
Yo daba mi vida hora tras  hora mi lamento
Y tu solo subias en tu poquedad.

Se te fue el momento no me busques no hay remedio
Mi nostalgia toda te la debo ati te confundiste
Por ti sola y lo peor de todo es que te quiero
Si te quiero mas no puedes ofrecerme algo real
Tu sueñas solo para ti.

Y si no me incluyes en tu todo yo soy nada
Como comprender entonces que este amor
Logre sobrevivir.
Y lo peor de todo es que te quiero
Y lo peor de todo es este amor que siento.

E                                C#-/E
Y lo peor de todo es que te quiero
C#m                              F#m
Y lo peor do todo es que te quiero
  C#-/E     C#m        B
  Ahhh    ahhh   ahhhhhhhhhh.


Tonos ocupados:

     B    C#-/E   F#   E   C#m   F
Em   2      4      2   0    4    1
Am   2      7      4   2    4    3
Dm   4      6      4   2    6    3
Gm   4      4      3   1    6    2
Bm   4      5      2   0    5    1
Em   2      4      2   0    4    1

ASI VA EL REQUINTO.

CAPO EN EL 5º TRASTE O REQUINTO NORMAL.
 REQUINTO.

    B                                  C#m
A ----|-----|-----|-----|-----|-----|--------|-------------------
D ----|-----|-----|-----|-----|-----|--------|-------------------
G ----|-----|-----|-----|-----|-----|--2oh-4-|-------------------
C --3-|--3--|-----|--4--|--3--|--1--|--2oh-4-|-------------------
E --2-|--2--|--2--|--4--|--2--|--0--|--------|-0-2-0-3-0-4-0-5---
A --2-|--2--|--1--|-----|-----|-----|--------|-------------------

   C#/E                          F#    E     F#   C#m
  -----|-----|-----|-----|-----|-----|-----|-----|------
  -----|-----|-----|-----|-----|-----|-----|-----|------
  -----|-----|-----|-----|-----|-----|-----|-----|------
  --3--|--3--|-----|--4--|--3--|--1--|--3--|--4--|------
  --2--|--2--|--2--|--4--|--2--|--0--|--2--|--4--|--2---
  --2--|--2--|--1--|-----|-----|-----|-----|-----|--1---

    B                                  C#m
  ----|-----|-----|-----|-----|-----|--------|-------------------
  ----|-----|-----|-----|-----|-----|--------|-------------------
  ----|-----|-----|-----|-----|-----|--2oh-4-|-------------------
  --3-|--3--|-----|--4--|--3--|--1--|--2oh-4-|-------------------
  --2-|--2--|--2--|--4--|--2--|--0--|--------|-0-2-0-3-0-4-0-5---
  --2-|--2--|--1--|-----|-----|-----|--------|-------------------

   C#/E                          F#    E     F#   C#m
  -----|-----|-----|-----|-----|-----|-----|-----|------
  -----|-----|-----|-----|-----|-----|-----|-----|------
  -----|-----|-----|-----|-----|-----|-----|-----|------
  --3--|--3--|-----|--4--|--3--|--1--|--3--|--4--|------
  --2--|--2--|--2--|--4--|--2--|--0--|--2--|--4--|--2---
  --2--|--2--|--1--|-----|-----|-----|-----|-----|--1---


 --------------------|----------------------------
 --------------------|----------------------------
 ------------------4-|----------------------2--4--
 ----3--1----3--1----|--------3--1----3--1--------
 --0-------0---------|--2--0--------O-------------
 --------------------|----------------------------

            
            
Suggest correction
Creating personal tab
Creating personal tab
You can edit any tab online and save it as your Personal.

You can edit, replace or remove any tab part or add personal notes – all changes will be seen only by you.

Personal tabs can be accessed anytime from any device, even offline.
Learn more »
Give kudos to tab author, rate the tab!
1 2 3 4 5
comments
print report bad tab
guest
Wanna post a correction for this tab? Suggest correction