Oops, an error
Loading. Please wait.
41 views 1 this week
no commentswrite comment
1 2 3 4 5
3 more votes to show rating
add to favorites
×
Save as Personal and add changes to this tab that will be seen only by you. Learn more ›
×
You can save this tab as Personal to edit and correct it or add notes. All changes will be seen only by you. Learn more »
launch autoscroll
font size
0
reset
how to read this tab
guitar tuner
edit
Autoscroll
slow
fast
+/-
esc
set tempo
stop
Excelente cancion para el 10 de mayo o para el cumpleaños de
LA madre, disfrutenla:

INTRO:
             C                                Bm
E ----------------------------------------------------------------------
A ----------------------------------------------------------------------
D ----------------------------------------------------------------------
G ----------------------------------------------------------------------
B --0--3----------------------------------------------------------------
E --------3--0--3---3--2--0--0--3--0--2--2--3--5--2--3--5--5--3--3--5--5

         Am             C             D7
E ----------------------------------------------
A ----------------------------------------------
D ----------------------------------------------
G ----------------------------------------------
B ----------------------------------------------
E --3--2--5--7--5--5--3--7--5--3--7--5---5--7--8


G7                        C
Toque tu puerta antes de nacer
G7                  C
Oi tus pasos al anochecer
Bm                               Am
Juge en tu vientre cuando muy contenta me llevabas
C                            D7
Y conmigo platicabas, yo te amee
RIFF1
   D7
E ---------------------
A ---------------------
D ---------------------
G ---------------------
B --1--3--5--7--7--5--5
E --2--3--5--8--7--5--5

G7                        C
Robe tus sueños cuando me enferme
G7                        C
llore en silencio cuando te abraze
Bm                                     Am
senti tu brazo cuando sobre mi hombro se posaba
C                            D7
y orgullosa me mirabas yo te ame

       G7
Es mi madre es mi madre
       C
Es mi madre a quien bese
      G7
Es mi madre es mi madre
       C
Es mi madre a quien ame

           Bm
Aun mucho antes que naciera
       Am
Antes de que tu me vieras
        C                         D7
Antes de que me escribieras yo te ame

       G7
Es mi madre es mi madre
       C
Es mi madre a quien bese
      G7
Es mi madre es mi madre
       C
Es mi madre a quien ame

         Am
Aun mucho antes
         C
Mas que a nadie
         G
yo te ameee

Bm-C-G-Bm-C-D7

G7                        C
Te vi llorando cuando tropese
G7                        C
Corri a tu lado cuando me levante
Bm                                     Am
Pedi en silencio a dios que tu conmigo te quedaras
C                            D7
y que nunca te marcharas yo te ame

       G7
Es mi madre es mi madre
       C
Es mi madre a quien bese
      G7
Es mi madre es mi madre
       C
Es mi madre a quien ame

         Am
Aun mucho antes
         C
Mas que a nadie
         G
yo te ameee

            
            
Suggest correction
Creating personal tab
Creating personal tab
You can edit any tab online and save it as your Personal.

You can edit, replace or remove any tab part or add personal notes – all changes will be seen only by you.

Personal tabs can be accessed anytime from any device, even offline.
Learn more »
Give kudos to tab author, rate the tab!
1 2 3 4 5
comments
print report bad tab
guest
Wanna post a correction for this tab? Suggest correction