Oops, an error
Loading. Please wait.

Brown Paper Bag bass

3,151 views 12 this week
no commentswrite comment
1 2 3 4 5
x 3
add to favorites
×
Save as Personal and add changes to this tab that will be seen only by you. Learn more ›
×
You can save this tab as Personal to edit and correct it or add notes. All changes will be seen only by you. Learn more »
launch autoscroll
font size
0
reset
guitar tuner
edit
Autoscroll
slow
fast
+/-
esc
set tempo
stop
Difficulty
Song: Brown Paper Bag live
Artist: Roni Size Reprazent
Link: http://www.youtube.com/watch?v=J4rvvxqT6WE&NR=1
Tabber: 51ck00
E-mail: warbass89@hotmail.com

Intro

G||--9s--10s--9-------------------|
D||--------------7h--8p--7--------|
A||-------------------------------|
E||-------------------------------|

Post-Intro

G||-----------9s-10s-9-----------|
D||--------9------------------4--|
A||------------------------------|
E||--7------------------3--3-----|

Main riff

G||--------9s-10s-9---7-----------------|
D||-----x---------------6---------------|
A||-----------------------5---2h-3p-2---|
E||--3----------------------------------|

G||--------9s-10s-9---7-----------------|
D||-----x---------------6---------------|
A||-----------------------5---2---2-----|
E||--3----------------------------------|

Tablature Legend
----------------
x - dead note
s - legato slide
h - hammer on
p - pull off

            
            
Suggest correction
Creating personal tab
Creating personal tab
You can edit any tab online and save it as your Personal.

You can edit, replace or remove any tab part or add personal notes – all changes will be seen only by you.

Personal tabs can be accessed anytime from any device, even offline.
Learn more »
Give kudos to tab author, rate the tab!
1 2 3 4 5
comments
print report bad tab
guest
Wanna post a correction for this tab? Suggest correction