Oops, an error
Loading. Please wait.

Favour bass

417 views 3 this week
no commentswrite comment
1 2 3 4 5
3 more votes to show rating
add to favorites
×
Save as Personal and add changes to this tab that will be seen only by you. Learn more ›
×
You can save this tab as Personal to edit and correct it or add notes. All changes will be seen only by you. Learn more »
launch autoscroll
font size
0
reset
guitar tuner
edit
Autoscroll
slow
fast
+/-
esc
set tempo
stop
Author
-------------------------------------------------------------------------------
			     Flavour - Room Eleven
-------------------------------------------------------------------------------

Tabbed By : Jimmy Peree
e-mail: small_criminal@hotmail.com

Tuning: Normal


Another song of the dutch jazzy band Room Eleven called Flavour. Catchy tune and nice 
tabs! Song might not be that accurate due the jumpy style of the bassist. He improvises at 
so if you're playing this song. Try to add some extra notes where needed.

Intro:

G|-------------|
D|-------------|
A|-------------|
E|-0-----------|

Verse 1:

G|----0-2---------|----0-2---------|
D|---------0--0-0-|---------3---2--|
A|0------------3--|0---------------| X2
E|----------------|----------------|

Chorus:

G|----------------|----------------|----------------|-------------|----------------|
D|33--3-22--2-00--|-0--2--3--0-----|33--3-22--2-00--|-------------|33--3-22--2-00--|
A|----------------|----------------|----------------|-00-11-22-33-|----------------|
E|----------------|----------------|----------------|-------------|----------------|

G|----------------|---------------|
D|-0--2--3--0-----|---------------|
A|----------------|---------------|
E|----------------|-0--0--0-------|

Verse 2:

G|----0-2---------|----0-2---------|
D|---------0--0-0-|---------3---2--|
A|0------------3--|0---------------| X4
E|----------------|----------------|

Chorus
But in the end instead of low E

G|---0--0--0------|
D|--(5)(5)(5)-----|
A|----------------|
E|----------------|

Intermission (solo):
                                             ()= If prefered (sounds cool)
G|----------------|--------------|          G|---------------|------------|
D|------11--------|-8------------|          D|--8-7---7---7--|------------|
A|---11-----------|---8----------| X2 then  A|-----(7)-------|-5--6--7--8-|
E|-8--------------|-----6---6/7-7|          E|-6------(5)----|------------|

Chorus X3

2nd time is piano solo + at the end of the sequence

G|---2-3-4----|
D|------------|
A|------------|
E|------------|

Verse 3 (Outro)

G|----0-2---------|----0-2---------|----0-2---------|----0-2---------------|
D|---------0--0-0-|---------3---2--|---------0--0-0-|---------3---2-0------|
A|0------------3--|0---------------|0------------3--|0----------------3-2-0|
E|----------------|----------------|----------------|----------------------|

G|----0-2---------|----0-2--------------------|
D|---------0--0-0-|---------3---2-(long note)-|
A|0------------3--|0--------------------------|
E|----------------|---------------------------|

Please keep in mind this is my first tab ever posted on the internet so apologies of I 
some mistakes.

Contact me @ my e-mail above if u have anything to add.

-------------------------------------------------------------------------------

            
            
Suggest correction
Creating personal tab
Creating personal tab
You can edit any tab online and save it as your Personal.

You can edit, replace or remove any tab part or add personal notes – all changes will be seen only by you.

Personal tabs can be accessed anytime from any device, even offline.
Learn more »
Give kudos to tab author, rate the tab!
1 2 3 4 5
comments
print report bad tab
guest
You may want to rate the tab now too:
select rating
Wanna post a correction for this tab? Suggest correction