Oops, an error
Loading. Please wait.

Cuando Te Miro tab

42 views 1 this week
no commentswrite comment
1 2 3 4 5
3 more votes to show rating
add to favorites
×
Save as Personal and add changes to this tab that will be seen only by you. Learn more ›
×
You can save this tab as Personal to edit and correct it or add notes. All changes will be seen only by you. Learn more »
launch autoscroll
font size
0
reset
how to read this tab
guitar tuner
edit
Autoscroll
slow
fast
+/-
esc
set tempo
stop
Para mi suena mejor que todas las anteriores

INTRO

e-|--5-----5----8---5----4----4----7---10---|
B-|----5-----5-------------0----0-----------|
G-|----6-----6-------------4----4-----------|
D-|-----------------------------------------|
A-|-----------------------------------------|
E-|-----------------------------------------|

e-|--5-----5-----8---5---| rapidamente hace esta posición
B-|----5-----5-----------| que es parecida a la verdadera
G-|----6-----6-----------| C9 la llamare ?semejante C9?
D-|----------------------|
A-|----------------------|
E-|----------------------|

Semejante C9
e-|-------3-----|
B-|------0------|
G-|-----3-------|
D-|----2--------|
A-|---3---------|
E-|-------------|?

Riff 1
e-|--0-----0-------4-----4----4----4----4----4---4----|
B-|----2------2-------0----0----0----0----0----0---0--|
G-|----2------2-------4----4----4----4----4----4---4--|
D-|---------------------------------------------------|
A-|---------------------------------------------------|
E-|---------------------------------------------------|
Cuando te miro, hay buen tiempo en mis miradas salen risas de
estas pupilas   abren todas las ventanas  y  tu   luz   decora
mi  vida ?????? sin quererlo van cayendo dos caricias

      D            C#m          Bm           E
e-|---2------------4------------2-----------------------|
B-|---3------------5------------3-----------------------|
G-|---2------------6------------4-------------1---------|
D-|-0--------------6------------4-------------2---------|
A-|-------------4--4----------2-2-------------2---------|
E-|----------------x------------x-----------0-----------|
Que te acarician, como brisa, sin remedio, mis miradas


e-|---2------------4------------2-----------------------|
B-|---3------------5------------3-----------------------|
G-|---2------------6------------4-------------1---------|
D-|-0--------------6------------4-------------2---------|
A-|-------------4--4----------2-2-------------2---------|
E-|----------------x------------x-----------0-----------|
No tienen prisa, y de lejos, yo te miro y tu no miras

Estrofa II

Riff 1 (los mismos acordes q la primera estrofa)

Coro
  A
Cuando te miro
                        C#m
Se abren los cielos me hago tan grande como montañas
 Bm
Y tus palabras, ya no maltratan
E                D                      E
No hay nada que estos ojos le estorben mirar

  A
Cuando te miro

detengo el tiempo
  C#m
Nada se mueve todo es perfecto
Bm
y desde el silencio se crecen mis versos
E                  D                       E
Los versos que un dia tus miradas encontraran

Bm
Y si me miras
E
Como te miro
Bm
Entenderias
E
Lo que me pasa


Cuando te miro
e-|--5-----5----8---5----4----4----7---10---|
B-|----5-----5-------------0----0-----------|
G-|----6-----6-------------4----4-----------|
D-|-----------------------------------------|
A-|-----------------------------------------|
E-|-----------------------------------------|

e-|--5-----5-----8---5--0----0---|
B-|----5-----5------------2----2-|
G-|----6-----6------------2----2-|
D-|------------------------------|
A-|------------------------------|
E-|------------------------------|

Estrofa III igual a las demas Estrofas, y Outro Igual al INTRO

Va dedicada a Oriana

            
            
Suggest correction
Creating personal tab
Creating personal tab
You can edit any tab online and save it as your Personal.

You can edit, replace or remove any tab part or add personal notes – all changes will be seen only by you.

Personal tabs can be accessed anytime from any device, even offline.
Learn more »
Give kudos to tab author, rate the tab!
1 2 3 4 5
comments
print report bad tab
guest
Wanna post a correction for this tab? Suggest correction