Oops, an error
Loading. Please wait.

I Fall Apart tab

version 2
version 2

Whole song

Interactive

2,202 views 3 this week
1 commentread comment
1 2 3 4 5
x 3
add to favorites
×
Save as Personal and add changes to this tab that will be seen only by you. Learn more ›
×
You can save this tab as Personal to edit and correct it or add notes. All changes will be seen only by you. Learn more »
launch autoscroll
font size
0
reset
how to read this tab
guitar tuner
edit
Autoscroll
slow
fast
+/-
esc
set tempo
stop
Rory Gallagher I Fall Apart
Tuning:Standard
Capo on 3rd fret




The Intro :

    Gm                     Gm9/F
e:-------------0----------------------0-----------|
B:------------------------------------------------|
G:----------0-----0-----0----------0-----------0--|
D:--8----8----------------------7-----------7-----|
A:-10----------------8-----8-------------8--------|
E:------------------------------------------------|
                    

    Eb            Eb9
e:-------------0---------------------------|
B:-------------------------6---------------|
G:----------0-----------0------------------|
D:-------5-----------5---------------------|
A:--6-------------6---------------------0--|
E:-----------------------------------------|


    Gm                   Gm9/F
e:--------------0-------------------0--------|
B:-------------------------------------------|
G:-------------------------------0-----------|
D:-----8-----8--------8-------7--------------|
A:-----7-----------------8----------------8--|
E:--0-----0x---------------------------------|


    Eb                     Eb9
e:-------------0----------------------------|
B:-------------------------6----------------|
G:----------0--------------0----------------|
D:-------5-----------5-----5----------------|
A:--3----------------3----------------------|
E:------------------------------------------|


 chorus:


    Gm                     Gm9/F
e:------------------------------------------------|
B:--0----0--0--0--0--0--0--0----0--0--0--0--0--0--|
G:--0----0--0--0--0--0--0--0----0--0--0--0--0--0--|
D:--8----8--8--8--8--8--8--7----7--7--7--7--7--7--|
A:-10---10-10-10-10-10-10--8----8--8--8--8--8--8--|
E:------------------------------------------------|
         Like a cat that's  playing     with a


    Ebj7
e:------------------------------------------|
B:--0--0--0--0--0--0--0---------------------|
G:--0--0--0--0--0--0--0---------------------|
D:--5--5--5--5--5--5--5----------0----------|
A:--6--6--6--6--6--6--6--0---5-------6---0h-|
E:------------------------------------------|
    ball of twine      that you call my

    Gm                     Gm9/F
e:------------------------------------------------|
B:--0----0--0--0--0--0--0--0----0--0--0--0--0--0--|
G:--0----0--0--0--0--0--0--0----0--0--0--0--0--0--|
D:-10---10-10-10-10-10-10--7----7--7--7--7--7--7--|
A:--8----8--8--8--8--8--8--8----8--8--8--8--8--8--|
E:------------------------------------------------|
    heart       oh but     baby     is   it  so

    Ebj7
e:-------------------------------------------|
B:--0----0--0--0--0--0--0--------------------|
G:--0----0--0--0--0--0--0--------------------|
D:--5----5--5--5--5--5--5----------0---------|
A:--6----6--6--6--6--6--6--0---5-------6--0h-|
E:-------------------------------------------|
    hard                to tell the two a-

    Gm                     Gm9/F
e:------------------------------------------------|
B:--0----0--0--0--0--0--0--0----0--0--0--0--0--0--|
G:--0----0--0--0--0--0--0--0----0--0--0--0--0--0--|
D:--5----8--8--8--8--8--8--7----7--7--7--7--7--7--|
A:-10---10-10-10-10-10-10--8----8--8--8--8--8--8--|
E:------------------------------------------------|
    part          and so   slowly     you  un-

    Ebj7                                     F                 Fsus4
e:----------------------------------------|--5----5--5====5----6----6--6--|
B:--0----0--0--0--0--0--0-----------------|--6----6--6====6----6----6--5--|
G:--0----0--0--0--0--0--0-----------------|--5----5--5====5----5----5--5--|
D:--5----5--5--5--5--5--5-----------------|--0----------------------------|
A:--6----6--6--6--6--6--6--6---5---0------|-------------------------------|
E:-------------------------------------6--|-------------------------------|
    wind it               'til I fall  a-    part


    F   (Solo after 2nd chorus)
e:--2----2--0--2----2------------------|
B:--3----3--3--3----3------------------|
G:--2----2--2--2----2------------------|
D:--0---------------------5----7----8--|
A:---------------5--6--7---------------|
E:-------5--6--7-----------------------|
        

    Gm                          Gm/F
e:------------------------------------------------|
B:------------------------------------------------|
G:------------------------------------------------|
D:--7h8p7--------------------(7)h8--(7)h8--(7)h8--|
A:--------10--10--10\-----------10-----10-----10--|
E:------------------------------------------------|


       Eb
e:--------------------------------------------|
B:--------------------------------------------|
G:--------------------------------------------|
D:--(7)h8-p7--------------------8-p7--8---8---|
A:-----10-----10--8--10-----------------------|
E:--------------------------------------------|


    Gm                       Gm/F
e:------------------------------------|
B:------------------------------------|
G:------------------------------------|
D:--8~--p7-------------7--8--10====/--|
A:----------10--8--10-----------------|
E:------------------------------------|


    Eb
e:---------------------------------------------|
B:---------------------------------------------|
G:---------------------------------------------|
D:--10-p8-p7-8-------10-p8-p7-8-------10-p8-p7-|
A:---------------------------------------------|
E:---------------------------------------------|

    Gm                    Gm/F
e:----------------------------------------------------|
B:----------------------------------------------------|
G:----------------------------------------------------|
D:--8~---7------7--8--10-------10-p8-p7--8--7---------|
A:----------10---------------------------------10--8--|
E:----------------------------------------------------|


    Eb
e:-------------------------------------------------|
B:-------------------------------------------------|
G:---------------------------------------7----7----|
D:--------8-------7-h8-p7------7--8--10------------|
A:--10~--------------------10----------------------|
E:-------------------------------------------------|


    F
e:--------------------------------|
B:--------------------------------|
G:-----10---------10-----10-------|
D:--------------------------------|
A:--8------8----------8------8----|
E:--------------------------------|


    F
e:-------------------------------------------|
B:-------------------------------------------|
G:--10------10------10------10------10--/12==|
D:------8~------8~------8~------8~-----------|
A:-------------------------------------------|
E:-------------------------------------------|


    Gm                      Gm/F
e:------------------------------10--10--------------|
B:------------------10--11--13----------------------|
G:==12------10--12--------------------------10--12--|
D:--------------------------------------------------|
A:--------------------------------------------------|
E:--------------------------------------------------|

    Eb
e:------------------------------------------------|
B:--10--11--13--/15--15---------------10--11--13--|
G:--------------------------------12--------------|
D:----------------------------12------------------|
A:------------------------------------------------|
E:------------------------------------------------|


    Gm                         Gm/F
e:----------------------------------------------------------|
B:--13b(15)--r13--p11--13--11--10-h11-p10---------------10--|
G:-----------------------------------------12--10--12~------|
D:----------------------------------------------------------|
A:----------------------------------------------------------|
E:----------------------------------------------------------|
    (pre-bend)

    Eb
e:------------------------------------------------|
B:-----------10--11--13----13b(15)----b15----b15==|
G:-------12---------------------------------------|
D:------------------------------------------------|
A:------------------------------------------------|
E:------------------------------------------------|


    Gm                                       Gm/F
e:----------------------------------------------------------------------|
B:==(b15)----(15)r13--11--13----11--p10---------------------------------|
G:---------------------------------------12==------10-h12-p10-9-10--12==|
D:----------------------------------------------------------------------|
A:----------------------------------------------------------------------|
E:----------------------------------------------------------------------|


    Eb
e:------------------------------------------------------------------|
B:----------------------10-----------------------(10)h12--(10)h12~--|
G:==(12)-------10--h12------12--\10--8--10--/12---------------------|
D:------------------------------------------------------------------|
A:------------------------------------------------------------------|
E:------------------------------------------------------------------|


    F                                 F
e:---------------------------------|-------------------------|
B:--6----6--6====6-----------------|--6----6----6---6-6------|
G:--5----5--5====6-----------------|--5----5----5---5-5------|
D:--0------------------------6~----|--0----0----0---0-0------|
A:--------------------0--h5--------|-------------------------|
E:---------------------------------|-------------------------|


Bridge:


    Gm     Gm7
e:--------------|
B:--0------0----|
G:--0------0----|
D:--5------0----|
A:--5------5----|
E:--0------0----|
    I      don't

    Csus2             Csus2                Gm                Gm     Gm7
e:--------------------------------------|-----10-10-10-10----------------|
B:--0----0----0--0----0----0----0----0--|-----11-11-11-10----0------0----|
G:--5----5----5--5----5----5----5----5--|-----10-10-10-10----0------0----|
D:--5----5----5--5----5----5----5----5--|-----10-------------5------0----|
A:--0-----------------0-----------------|--------------------5------5----|
E:--------------------------------------|--0-----------------0------0----|
    mind              waiting  for  your   love              for    of

    Csus2             Csus2                Gm                Gm     Gm7
e:--------------------------------------|-----10-10-10-10----------------|
B:--0----0----0--0----0----0----0----0--|-----11-11-11-10----0------0----
G:--5----5----5--5----5----5----5----5--|-----10-10-10-10----0------0----|
D:--5----5----5--5----5----5----5----5--|-----10-------------5------0----| 
A:--0-----------------0-----------------|--------------------5------5----|
E:--------------------------------------|--0-----------------0------0----|
    time              I've got plenty  of                    rain   or

    Csus2             Csus2                Gm                Gm     Gm7
e:--------------------------------------|-----10-10-10-10----------------|
B:--0----0----0--0----0----0----0----0--|-----11-11-11-10----0------0----
G:--5----5----5--5----5----5----5----5--|-----10-10-10-10----0------0----|
D:--5----5----5--5----5----5----5----5--|-----10-------------5------0----| 
A:--0-----------------0-----------------|--------------------5------5----|
E:--------------------------------------|--0-----------------0------0----|
    shine             please bring out your love             make   it


    Csus2             Csus2
e:--------------------------------------|
B:--0----0----0--0----0----0----0----0--|
G:--5----5----5--5----5----5----5----5--|
D:--5----5----5--5----5----5----5----5--|
A:--0-----------------0-----------------|
E:--------------------------------------|
    shine             like the stars a-

    Gm            Gm9/F           Ebj7
e:-----------------------------|--------------------------|
B:--0-------------0------0--0--|--0------0--0-------------|
G:--0------0--0---0------0--0--|--0------0--0-------------|
D:--8------8--8---7------7--7--|--5------5--5-------------|
A:-10-----10-10---8------8--8--|--6-----------------------|
E:--0--------------------------|--------------------------|
    bove


Coda:


e:-----------------------|
B:-----------------------|
G:-----------------------|
D:-------------------5~--|
A:-------------0--5------|
E:--0--5--6~-------------|


    Csus2                  Cm
e:----------------------------------------------|
B:--0----0--0--0--0--0--0-----------------------|
G:--5----5--5--5--5--5--5-------------------5~--|
D:--5----5--5--5--5--5--5-------------0--5------|
A:--0----------------------0--6--6~-------------|
E:----------------------------------------------|


    Gm                     Gm
e:----------------------------------------------|
B:--0----0--0--0--0--0--0-----------------------|
G:--0----0--0--0--0--0--0-----------------------|
D:--5----5--5--5--5--5--5-------------------5~--|
A:--5---------------------------------0--5------|
E:--0----------------------0--5--6~-------------|

    Csus2                  Cm
e:---------------------------------------------|
B:--0----0--0--0--0--0--0----------------------|
G:--5----5--5--5--5--5--5-------------------0--|
D:--5----5--5--2--2--2--2-------------0--5-----|
A:--0----------------------0--5--6~------------|
E:---------------------------------------------|


    Gm
e:---------------------------------------------------------|
B:---------------------------------------------------------|
G:--5b(7)----b7----b7----b7----b7--b7--b7--b7--b7b7b7b7b7--|
D:---------------------------------------------------------|
A:---------------------------------------------------------|
E:---------------------------------------------------------|
                 

    Gm        Gm9/F       Ebj7
e:---------------------|---------------------------------|
B:--0---------0--------|--0------------------------------|
G:--0---------0--------|--0------------------------------|
D:--8---------7--------|--5---------------------------0--|
A:-10---------8--------|--6--------6--p5--6--p6--6~------|
E:--0---------0--------|---------------------------------|


                                                       
e:------|-----|---------|------|------|------|------|-----|------|-----|------|
B:------|-----|---------|------|------|------|------|-----|------|-----|------|
G:------|--0--|---------|------|------|------|------|--7--|---8--|-10--|--12--|
D:---8--|--7--|--5---5--|---8--|--10--|--12--|--13--|--8--|--10--|-12--|--13--|
A:--10--|--8--|--6---6--|--10--|--12--|--13--|--15--|-----|------|-----|------|
E:------|-----|---------|------|------|------|------|-----|------|-----|------|
    (palm mute)

    Gm         Gm9/F         Ebj7
e:--------0---------------|----------------------|
B:--------0----0----0--0--|--0--------5b(7)-/----|
G:--------0----0----0--0--|--0-------------------|
D:--------8----7----7--7--|--5-------------------|
A:----10-------8----8--8--|--6-------------------|
E:--0---------------------|----------------------|

    Gm         Gm9/F         Ebj7
e:------------------------|--------------------------------------------|
B:--------0----0----0--0--|--0----0-------5----3--5----3--5-p3-----5p--|
G:--------0----0----0--0--|--0----0-----------------------------4------|
D:--------8----7----7--7--|--5----5------------------------------------|
A:----10-------8----8--8--|--6----6------------------------------------|
E:--0---------------------|--------------------------------------------|


    Gm                  Gm9/F
e:-----------------------------------|
B:-----------0--0--0--0-----------0--|
G:--0--------0--0--0--0-----------0--|
D:--8--------8--8--8--8--------7-----|
A:-10----10--------------8~~---------|
E:-----------------------------------|


    Ebj7
e:---------------------------0-------------|
B:------------------------6--6-------------|
G:---------------------6b(7)-----5--p0-----|
D:--------5--5--------------------------5--|
A:--6~~~-----6~~---------------------------|
E:-----------------------------------------|


    Gm                 Gm9/F                      Ebj7
e:---------------------------------------------|-------------------------|
B:--------0--0--0--0---0--0--0--0--0--0--0--0--|--0----0--0--0--0--0--0--|
G:--------0--0--0--0---0--0--0--0--0--0--0--0--|--0----0--0--0--0--0--0--|
D:--------5--5--5--5---4--4--4--4--4--4--4--4--|--2----2--2--2--2--2--2--|
A:-----7---------------5--5--5--5--5--5--5--4--|--3----3--3--3--3--3--3--|
E:--0------------------------------------------|-------------------------|

e:------|------|------|------|------|------|------|------|
B:------|------|------|------|------|------|------|------|
G:------|------|------|------|------|------|------|------|
D:---8--|--10--|--12--|--15--|--12--|--12--|--12--|--12--|
A:--10--|--12--|--13--|--13--|--10--|--10--|--10--|--10--|
E:------|------|------|------|------|------|------|------|

    Gm                 Gm9/F              Ebj7               F      Fsus2
e:-------------------------------------|---------------------5---------0--|
B:--0----0--0----0--0--0----0--0----0--|--0----0--0----0--0--6----6-------|
G:--0----0--0----0--0--0----0--0----0--|--0----0--0----0--0--5------------|
D:--8----8--8----8--8--7----7--7----7--|--5----5--5----5--5--0------------|
A:-10---10-10---10-10--8----8--8----8--|--6----6--6----6--6---------------|
E:-------------------------------------|----------------------------------|


    Gm   
e:--0-----------------------------------|
B:--0-----------------------------------|
G:--0-----------------------------------|
D:--8-----------------------------------|
A:-10-----------------------------------|
E:--------------------------------------|
      (let ring)

            
            
Suggest correction
Creating personal tab
Creating personal tab
You can edit any tab online and save it as your Personal.

You can edit, replace or remove any tab part or add personal notes – all changes will be seen only by you.

Personal tabs can be accessed anytime from any device, even offline.
Learn more »
Give kudos to tab author, rate the tab!
1 2 3 4 5
comments
print report bad tab
1 comment total.
0 reply
jesperweckstr 10 Oct 24, 2015 07:20 AM

Good job with tab ! :D

guest
Wanna post a correction for this tab? Suggest correction