Oops, an error
Loading. Please wait.

Culture Wars bass

version 1
version 1

Whole song

Interactive

374 views 1 this week
1 commentread comment
1 2 3 4 5
2 more votes to show rating
add to favorites
×
Save as Personal and add changes to this tab that will be seen only by you. Learn more ›
×
You can save this tab as Personal to edit and correct it or add notes. All changes will be seen only by you. Learn more »
launch autoscroll
font size
0
reset
guitar tuner
edit
Autoscroll
slow
fast
+/-
esc
set tempo
stop
----------------------------------------------------------------------------
                         Culture Wars - Rosaline
----------------------------------------------------------------------------
myspace.com/rosaline
facebook.com/rosalinemusic

Tabbed by: Cameron Brow (Ninjasaurus Cam)
Email: bioniclestahu@hotmail.com

Tuning: Drop-D

I tabbed this in about 2 hours by ear, and it should be just about right, might have the 
wrong at the beginning though.

G-----------------------------|
D-3~~5~~7~~10~~--3~~5~~7~~~~--|
A-----------------------------|
D-3~~5~~7~~10~~--3~~5~~7~~~~--| x2

*Singing comes in*

------------|
3~~5~~7~~5~~|
------------|
3~~5~~7~~5~~| x4
You can strum more than once too if you want, I just find it works this way too

*Chorusy thing*

-------------------------------------------------------------------------|
-------------------------------------------------------------------------|
-------------------------------------------------------------------------|
7-7-7-7-7-7-7-7-10-10-10-10-10-10-10-10-3-3-3-3-3-3-3-3-0--0--0--5--5--5-|x4

-----------------|
-----------------|
-----------------|
0--0--0--5--5--5-|

----------------------------------------------------------------|
----------------------------------------------------------------|
----------------------------------------------------------------|
3-3-3-3-3-3-3-3-5-5-5-5-5-5-5-5-7-7-7-7-7-7-7-7-5-5-5-5-5-5-5-5-| x 3

------------------------------------------------------------------------|
------------------------------------------------------------------------|
------------------------------------------------------------------------|
3-3-3-3-3-3-3-3-5-5-5-5-5-5-5-5-7-7-7-7-7-7-7-7-10-10-10-10-10-10-10-10-|

Quiet part, come in after *Our teachers are all fired, our artists are all drowned, the 
of statues are talking the heroes down*

--------------------------------------------|
--------------------------------------------|
--------------------------------------------|
3~~~~5~~~~7~~~~10~~//3~~~~5~~~~7~~~~10~~12~~|

------------------------------------------------------------|
------------------------------------------------------------|
------------------------------------------------------------|
3-3-3-3-3-3-3-3-5-5-5-5-5-5-5-5-7-7-7-7-7-7-7-7-10-10-10-10-|


--------------------------------------------------------|
--------------------------------------------------------|
--------------------------------------------------------|
3-3-3-3-3-3-3-3-5-5-5-5-5-5-5-5-5-7-7----7-7----7-7-----|    x3

--------------------------------------------------|
--------------------------------------------------|
--------------------------------------------------|
3-3-3-3-3-3-3-3-5-5-5-5-5-5-5-5-5-0-0----0-0-0000-|

----------------------|
----------------------|
----------------------|
0-0----0-0-0000--0-0--|   x 8

Quiet until piano comes in

----------------------------------|
----------------------------------|
----------------------------------|
-7~~~~10~~~~5~~5~~7~~~~10~~~~5~~~~|

OH GOD NOT THIS THREAD AGAIN

--------------------------------------------|
--------------------------------------------|
--------------------------------------------|
3~~~~5~~~~7~~~~10~~//3~~~~5~~~~7~~~~10~~12~~|

------------------------------------------------------------|
------------------------------------------------------------|
------------------------------------------------------------|
3-3-3-3-3-3-3-3-5-5-5-5-5-5-5-5-7-7-7-7-7-7-7-7-10-10-10-10-|


--------------------------------------------------------|
--------------------------------------------------------|
--------------------------------------------------------|
3-3-3-3-3-3-3-3-5-5-5-5-5-5-5-5-5-7-7----7-7----7-7-----|    x3

----------------------------------------------------------|
----------------------------------------------------------|
----------------------------------------------------------|
3-3-3-3-3-3-3-3-5-5-5-5-5-5-5-5-5-0-0----0-0-0000--00-000-|

| /  slide up
| \  slide down
| h  hammer-on
| p  pull-off
| ~  vibrato
| +  harmonic
| x  Mute note
============================================================================

Hope this helps you guys!

            
            
Suggest correction
Creating personal tab
Creating personal tab
You can edit any tab online and save it as your Personal.

You can edit, replace or remove any tab part or add personal notes – all changes will be seen only by you.

Personal tabs can be accessed anytime from any device, even offline.
Learn more »
Give kudos to tab author, rate the tab!
1 2 3 4 5
comments
print report bad tab
1 comment total.
0 reply
soosa 72 Dec 01, 2010 11:58 AM

Weird, I was just doing a tab for both guitars on this...

Anyway, going around it once it sound alright to me.. ;)

guest
You may want to rate the tab now too:
select rating
Wanna post a correction for this tab? Suggest correction