Oops, an error
Loading. Please wait.

Sledge Hammer Face Lift bass

version 1
version 1

Whole song

Interactive

1,133 views 1 this week
no commentswrite comment
1 2 3 4 5
2 more votes to show rating
add to favorites
×
Save as Personal and add changes to this tab that will be seen only by you. Learn more ›
×
You can save this tab as Personal to edit and correct it or add notes. All changes will be seen only by you. Learn more »
launch autoscroll
font size
0
reset
guitar tuner
edit
Autoscroll
slow
fast
+/-
esc
set tempo
stop
The tuning is DROP B.


--INTRO-- Repeat twice


----------------------------------------------------------------------------|
----------------------------------------------------------------------------|
------------------------------------------------------------8-7----7-6------|
0-00-1-00-3-00-4-00-0-00-1-00-3-00-4-00-0-00-1-00-3-00-4-00----7-6----6-5---|


--BREAKDOWN--

-----------------------------------------------------------------------|
-----------------------------------------------------------------------|
-----------------------------------------------------------------------|
0000-0-0-0000-0-0-0000-0-0000-0-0-0000-0-0-0000-0000-0-0-0000-0-0-0000-|

--VERSE-- Repeat twice

--------------------------------------------------------------------------|
--------------------------------------------------------------------------|
------------------------------------------------------------8-7----7-6----|
0-00-1-00-3-00-4-00-0-00-1-00-3-00-4-00-0-00-1-00-3-00-4-00----7-6----6-5-|

--VOCAL BREAK-- Repeat twice

-------------------------------------------|
-------------------------------------------|
-------------------------------------------|
1111-0------1111-0------1111-0-----1111-0--|


--BRIDGE-- Repeat twice.

-----------------------------------------------------------------------------|
-----------------------------------------------------------------------------|
-----5p4h5------5p4h5------5p4h5---44-55-88-77------8-7-8-----8-7-8----8-7-8-|
0-0---------0-0--------0-0----------------------8-8-------8-8-------7-7------|


----------------------|
----------------------|
----------------------|
77-88-12-12-10-10-----|

--SLOW BRIDGE-- Repeat twice

--------|
--------|
--------|
000-000-

---------------------------------------------------------------|
---------------------------------------------------------------|
-------5/4/5~---------5/4/5---------5/4/5--4444-5555-8888-7777-|
000-000-------000-000-------000-000----------------------------|

-----------------------------------------------------------------------------|
-----------------------------------------------------------------------------|
--------8/7/8~---------8/7/8-----------8/7/8--7777-8888-12-12-12-12-10-10-10-|
888-888--------888-888--------777-777----------------------------------------|

--OUTRO--

-----------------------------------------------|
-----------------------------------------------|
-----------------------------------------------|
7----8--10-8-7-8-7-5----7----8--10-8-7-8-7-5---|

-------------------------------------------------------------------|
-------------------------------------------------------------------| 2x
-------------------------------------------------------------------|
7777777777-888888-10-8-7-8-7-5--7777777777777-888888-10-8-7-8-7-5--|


-----------------------------------------------------------------|
-----------------------------------------------------------------|
-----------------------------------------------------------------|
7---8--5--7---8---7---8--5--7---8---7-------------7--------------|


------------------------------------------------------------------------| 2x
------------------------------------------------------------------------|
------------------------------------------------------------------------|
7-77777-77777-77777---7-77777-77777-77777---0-00000-00000-00000-0-00000-|


----------|
----------|
----------|
7-8-10-12-|


----------------------------------------------|
----------------------------------------------|
55555-88-77777-10-10-88888-12-12-10-10-88-77--| x2
----------------------------------------------|

------------------------------------------------------------------------|
------------------------------------------------------------------------|
5---8-7---10-8---10-12-10-7-8-7-5-7-5---8-7--10-8--10-12-10-7-8-7-5-7---|
------------------------------------------------------------------------|


----------------------------------------------------------|
----------------------------------------------------------|
5-----------8-7-----------10-8---------------12-10-8-7----|
---000-000-------000-000--------000-000-000---------------| Repeat until end


____________________________________________________________________

Thanks for reading this tab!

any questions or corrections? even comments?

email me at r0ssw4rri0r@hotmail.com

            
            
Suggest correction
Creating personal tab
Creating personal tab
You can edit any tab online and save it as your Personal.

You can edit, replace or remove any tab part or add personal notes – all changes will be seen only by you.

Personal tabs can be accessed anytime from any device, even offline.
Learn more »
Give kudos to tab author, rate the tab!
1 2 3 4 5
comments
print report bad tab
guest
You may want to rate the tab now too:
select rating
Wanna post a correction for this tab? Suggest correction