Oops, an error
Loading. Please wait.

State Of Decay tab

4,151 views 9 this week
no commentswrite comment
1 2 3 4 5
1 last vote to show rating
add to favorites
×
Save as Personal and add changes to this tab that will be seen only by you. Learn more ›
×
You can save this tab as Personal to edit and correct it or add notes. All changes will be seen only by you. Learn more »
launch autoscroll
font size
0
reset
how to read this tab
guitar tuner
edit
Autoscroll
slow
fast
+/-
esc
set tempo
stop
Took me a while to write out what each guitar is doing at whatever second in the 
song so i hope you appreciate it :p
But yeah this song is really easy, easy to get into it while your playing.

Ratings and comments welcome.

TITLE: State Of Decay
BAND: Rose Funeral
ALBUM: Crucify.Kill.Rot

LEGEND:

h = hammer-on
p = pull-off
t = tremolo picked
/ = slide
~ = vibrato(hold note)

TUNING: Drop B

(0:00 - 0:26) Both Guitars:

|------------------------------------------------------|
|------------------------------------------------------|
|------------------------------------------------------|
|------------------------------------------------------| x6
|-0000----0000-0-0----0000----0000-0000----------------|
|-0000----0000-0-0----0000----0000-0000----------------|

(0:26 - 0:51) Guitar 1:

|------------------------------------------------------|
|------------------------------------------------------|
|------------------------------------------------------|
|------------------------------------------------------| x8
|-------8p5h8-------10p7h10-------12p8h12--------------|
|-0-0-0-------0-0-0---------0-0-0---------0-0-0-10-8-7-|

(0:26 - 0:51) Guitar 2:

|------------------------------------------------------|
|------------------------------------------------------|
|------------------------------------------------------|
|------------------------------------------------------|
|-0----------------------------------------------------|
|-0----------------------------------------------------|

|------------------------------------------------------|
|------------------------------------------------------|
|------------------------------------------------------|
|------------------------------------------------------|
|-0~~~~~-----------------------------------------------|
|-0~~~~~-----------------------------------------------|

|------------------------------------------------------|
|------------------------------------------------------|
|------------------------------------------------------|
|-------7p3h7-------8p5h8-------10p7h10----------------| x6
|------------------------------------------------------|
|-0-0-0-------0-0-0-------0-0-0---------0-0-0-10-8-7---|

(0:51 - 0:54) Both Guitars:

|------------------------------------------------------|
|------------------------------------------------------|
|------------------------------------------------------|
|------------------------------------------------------|
|-0~~~~~-----------------------------------------------|
|-0~~~~~-----------------------------------------------|

(0:54 - 1:28) Guitar 1:

|------------------------------------------------------|
|------------------------------------------------------|
|------------------------------------------------------|
|-------------5t---------------------------------------| x 8
|---5t--7t-8t----7t-8t---8t----7t----------------------|
|-0--------------------8-----5-------------------------|

(0:54 - 1:28) Guitar 2:

|------------------------------------------------------|
|------------------------------------------------------|
|------------------------------------------------------|
|---------------8t-------------------------------------| x6
|---8t--10t-12t----10t-12t---12t----10t----------------|
|-0------------------------8------5--------------------|

|---------------------------|--------------|------------|
|---------------------------|-----1st------|----2nd-----|
|---------------------------|----Ending----|---Ending---|
|---------------------------|--------------|------------| x2
|-0000----0000-0-0----0000--|--0000-0000---|--0000-\\\--|
|-0000----0000-0-0----0000--|--0000-0000---|--0000-\\\--|

(1:28 - 1:47) Both Guitars:

|------------------------------------------------------|
|------------------------------------------------------|
|------------------------------------------------------|
|------------------------------------------------------| x4
|-0000----0000-0-0----0000----0000-0000----------------|
|-0000----0000-0-0----0000----0000-0000----------------|

(1:47 - 2:14) Guitar 1:

|-------------------------------------------------------------------|
|-------------------------------------------------------------------|
|-------------------------------------------------------------------|
|-------------------------------------------------------------------|
|-0-0~~~~~-8~~~-10~~~-0---8---7----10---8---7h8-8--8h10p8--7--7h8p7-|
|-0-0~~~~~-8~~~-10~~~-0-0---0----0----0---0-----8----------7--------|

|------------------------------------------------------|
|------------------------------------------------------|
|------------------------------------------------------|
|------------------------------------------------------| x4
|-0~---8---7----10---8---7h8--8--8h10p8-7--7h8p7-------|
|-0~-0---0----0----0---0------8---------7--------------|

(1:47 - 2:14) Guitar 2:

|--------------------------------------------------------|
|--------------------------------------------------------|
|--------------------------------------------------------|
|-----------------8--------------------------------------| x6
|-0~---12---10--------12---10h12-8--8h10p8--10--10h12p10-|
|-0~-0----0-----0---0----0-------8----------10-----------|

(2:14 - 2:19) Both Guitars:

|------------------------------------------------------|
|------------------------------------------------------|
|--------(Guitar 2)--------(Guitar 1)------------------|
|------------------------------------------------------|
|-0~~~----0-0-0-0-----------0-0-0-0--------------------|
|-0~~~----0-0-0-0-----------0-0-0-0--------------------|

(2:19 - 2:34) Both Guitars:

|-----------------------------------------------------------------|
|-----------------------------------------------------------------|
|--------------------(YEAHHHHHHHHHHHHHHHHHH)----------------------|
|-----------------------------------------------------------------|
|-0-0-0-0-0-0-0-0-0-0-0-0-0-0-0-0-0-0-0-0-0-0-0-0-0-0-0-0-0-0-\\\-|
|-0-0-0-0-0-0-0-0-0-0-0-0-0-0-0-0-0-0-0-0-0-0-0-0-0-0-0-0-0-0-\\\-|

|-----------------------------------------------------------------|
|-----------------------------------------------------------------|
|-----------------------------------------------------------------|
|-----------------------------------------------------------------|
|-0-0-0-0-0-0-0-0-0-0-0-0-3-1-0-1-0-0-0-0-0-0-0-0-0-0-0-0-3-1-0-1-|
|-0-0-0-0-0-0-0-0-0-0-0-0-3-1-0-1-0-0-0-0-0-0-0-0-0-0-0-0-3-1-0-1-|

|------------------------------------------------------|
|------------------------------------------------------|
|---(Guitar 2)--------(Guitar 1)-----------------------|
|------------------------------------------------------|
|----0-0-0-0-----------0-0-0-0-------------------------|
|----0-0-0-0-----------0-0-0-0-------------------------|

(2:34 - 3:04) Both Guitars:

|------------------------------------------------------|
|------------------------------------------------------|
|------------------------------------------------------|
|------------------------------------------------------|
|-00----------00-00----------00000---------------------|\
|-00----------00-00----------00000---------------------| \

|------------------------------------------------------|   x4
|------------------------------------------------------|  /
|------------------------------------------------------| /
|------------------------------------------------------|/
|-00-------------------------00-00-0-------------------|
|-00-------------------------00-00-0-------------------|

(3:04 - 3:31) Guitar 1:

|------------------------------------------------------|
|------------------------------------------------------|
|------------------------------------------------------|
|------------------------------------------------------|
|-0~~~~~-----------------------------------------------|
|-0~~~~~-----------------------------------------------|

|------------------------------------------------------|
|------------------------------------------------------|
|------------------------------------------------------|
|------------------------------------------------------| x2
|-0~--13~--12~--8~--15~--13~--12~--13~-----------------|
|-0~---------------------------------------------------|

|------------------------------------------------------|
|------------------------------------------------------|
|------------------------------------------------------|
|------------------------------------------------------| x2
|-8~--13~--12~--8~--15~--13~--12~--13~-----------------|
|-8~---------------------------------------------------|

|------------------------------------------------------|
|------------------------------------------------------|
|------------------------------------------------------|
|------------------------------------------------------|
|-0~~~~~-----------------------------------------------|
|-0~~~~~-----------------------------------------------|

(3:04 - 3:31) Guitar 2:

|------------------------------------------------------|
|------------------------------------------------------|
|------------------------------------------------------|
|------------------------------------------------------|
|-0~~~~~-----------------------------------------------|
|-0~~~~~-----------------------------------------------|

|------------------------------------------------------|
|------------------------------------------------------|
|------------------------------------------------------|
|-----12~--8~--7~--13~--12~--10~--12~------------------| x2
|-0~---------------------------------------------------|
|-0~---------------------------------------------------|

|------------------------------------------------------|
|------------------------------------------------------|
|------------------------------------------------------|
|-----12~--8~--7~--13~--12~--10~--12~------------------| x2
|-8~---------------------------------------------------|
|-8~---------------------------------------------------|

|------------------------------------------------------|
|------------------------------------------------------|
|------------------------------------------------------|
|------------------------------------------------------|
|-0~~~~~-----------------------------------------------|
|-0~~~~~-----------------------------------------------|

(3:31 - 3:54) Guitar 1:

|-----------------------------------------------------------------|    |-------------------|
|-----------------------------------------------------------------|    |-------------------|
|-----------------------------------------------------------------|    |-------------------|
|-----------------------------------------------------------------| x4 |-------------------| 
|-0~-000-000-000--0~-000-000-000--0~-000-000-000--555-888-777-333-|    |--555-888-777-444--|
|-0~-000-000-000--0~-000-000-000--0~-000-000-000------------------|    |-------------------|

(3:31 - 3:54) Guitar 2:

|-----------------------------------------------------------------------|    
|-----------------------------------------------------------------------|    
|-----------------------------------------------------------------------|    
|-----------------------------------------------------------------------| x4 
|-0~-000-000-000--0~-000-000-000--0~-000-000-000--888-121212-101010-777-|    
|-0~-000-000-000--0~-000-000-000--0~-000-000-000------------------------|    

|------------------------|
|------------------------|
|------------------------|
|------------------------|
|-888-121212-101010-777--|
|------------------------|

(3:54 - 3:58) Guitar 1:

|------------------------------------------------------|
|------------------------------------------------------|
|------------------------------------------------------|
|------------------------------------------------------|
|-0~-000-000-000--0~-000-000-000--0~-000-000-000-------|
|-0~-000-000-000--0~-000-000-000--0~-000-000-000-------|

(3:54 - 3:58) Guitar 2:

|------------------------------------------------------|
|------------------------------------------------------|
|------------------------------------------------------|
|------------------------------------------------------|
|-0~~~~~~~~~~~~~~-0~~~~~~~~~~~~~~-0--------------------|
|-0~~~~~~~~~~~~~~-0~~~~~~~~~~~~~~-0--------------------|

(3:58 - End) Guitar 1:

|-----------------------------------------------------------------|    
|-----------------------------------------------------------------|    
|-----------------------------------------------------------------|    
|-----------------------------------------------------------------| x4  
|-0~-000-000-000--0~-000-000-000--0~-000-000-000--555-888-777-333-|    
|-0~-000-000-000--0~-000-000-000--0~-000-000-000------------------|

|---------------------------------| 
|---------------------------------|
|-----------(Fade Out)------------|
|---------------------------------|
|-0~~~~~~~~~~~~~~~~~~~~~~~~~~~----|
|-0~~~~~~~~~~~~~~~~~~~~~~~~~~~----|   

(3:58 - End) Guitar 2:

|-----------------------------------------------------------------------|    
|-----------------------------------------------------------------------|    
|-----------------------------------------------------------------------|    
|-----------------------------------------------------------------------| x4 
|-0~-000-000-000--0~-000-000-000--0~-000-000-000--888-121212-101010-777-|    
|-0~-000-000-000--0~-000-000-000--0~-000-000-000------------------------| 

|---------------------------------| 
|---------------------------------|
|-----------(Fade Out)------------|
|---------------------------------|
|-0~~~~~~~~~~~~~~~~~~~~~~~~~~~----|
|-0~~~~~~~~~~~~~~~~~~~~~~~~~~~----|

            
            
Suggest correction
Creating personal tab
Creating personal tab
You can edit any tab online and save it as your Personal.

You can edit, replace or remove any tab part or add personal notes – all changes will be seen only by you.

Personal tabs can be accessed anytime from any device, even offline.
Learn more »
Give kudos to tab author, rate the tab!
1 2 3 4 5
comments
print report bad tab
guest
You may want to rate the tab now too:
select rating
Wanna post a correction for this tab? Suggest correction