Oops, an error
Loading. Please wait.

300 Motion Pictures tab

514 views 1 this week
1 commentread comment
1 2 3 4 5
1 last vote to show rating
add to favorites
×
Save as Personal and add changes to this tab that will be seen only by you. Learn more ›
×
You can save this tab as Personal to edit and correct it or add notes. All changes will be seen only by you. Learn more »
launch autoscroll
font size
0
reset
how to read this tab
guitar tuner
edit
Autoscroll
slow
fast
+/-
esc
set tempo
stop
Author
Difficulty
_____________________________________________________________________________

                      300 Motion Pictures - Roses Are Red
_____________________________________________________________________________

Tabbed by: Cundo
Email: facu_2689@comcast.net

Tuning: Drop D DADGBe

Intro Guitar 1
e|---------------|
B|---------------|
G|---------------|
D|-3~------------|
A|-3~------------|
D|-3~------------|

"Lo-Fi" Guitar 2
e|------------------------------------//p---|
B|------------------------------------//i---|
G|------------------------------------//c---|
D|-3x33333--7x77777--5x55555--5x55777-//k---|x2
A|-3x33333--7x77777--5x55555--5x55777-//s---|
D|-3x33333--7x77777--5x55555--5x55777-//l.--|

Intro Continued
e|-----------------------------------------|
B|-----------------------------------------|
G|-----------------------------------------|
D|-3x33333--7x77777--5x55555--5x55777------|x2
A|-3x33333--7x77777--5x55555--5x55777------|
D|-3x33333--7x77777--5x55555--5x55777------|

Guitar 2
e|-//p------------------------------------------------------------------------|
B|-//i------------------------------------------------------------------------|
G|-//c------------------------------------------------------------------------|
D|-//k5x55555/10x1010101010\9x99999-9x99h101010-5x55555/10x10101010\9~9h10\5~-|
A|-//s------------------------------------------------------------------------|
D|-//l.-----------------------------------------------------------------------|

Guitar 1
e|----------------------------------------------------------------|
B|----------------------------------------------------------------|
G|----------------------------------------------------------------|
D|-3x33333--7x77777--5x55555--5x55777--3x33333--7x77775~--5h7-3~--|
A|-3x33333--7x77777--5x55555--5x55777--3x33333--7x77775~--5h7-3~--|
D|-3x33333--7x77777--5x55555--5x55777--3x33333--7x77775~--5h7-3~--|

Verse
e|-------------------|
B|-------------------|
G|-------------------|
D|-3333333--5555555--|x2
A|-3333333--5555555--|
D|-3333333--5555555--|
PM ....... ........

Guitar 1
e|--------------------|
B|--------------------|
G|--------------------|
D|-3~-----------5~----|x2
A|-3~-----------5~----|
D|-3~-----------5~----|

Guitar 2
e|--------------------|
B|--------------------|
G|--4h5--4h5--4h5-----|
D|-----5~---5~---5~---|x5
A|--------------------|
D|--------------------|

Guitar 2
e|--------------------|
B|--------------------|
G|---44444h555--------|
D|---555555555--------|
A|--------------------|
D|--------------------|

"And Every Smile That You Fake..."
e|-----------------------------------------|
B|-----------------------------------------|
G|-----------------------------------------|
D|-3x33333--7x77777--5x55555--5x55777------|x2
A|-3x33333--7x77777--5x55555--5x55777------|
D|-3x33333--7x77777--5x55555--5x55777------|

Guitar 2
e|-//p------------------------------------------------------------------------|
B|-//i------------------------------------------------------------------------|
G|-//c------------------------------------------------------------------------|
D|-//k5x55555/10x1010101010\9x99999-9x99h101010-5x55555/10x10101010\9~9h10\5~-|
A|-//s------------------------------------------------------------------------|
D|-//l.-----------------------------------------------------------------------|

Guitar 1
e|----------------------------------------------------------------|
B|----------------------------------------------------------------|
G|----------------------------------------------------------------|
D|-3x33333--7x77777--5x55555--5x55777--3x33333--7x77775~--5h7-3~--|
A|-3x33333--7x77777--5x55555--5x55777--3x33333--7x77775~--5h7-3~--|
D|-3x33333--7x77777--5x55555--5x55777--3x33333--7x77775~--5h7-3~--|

Verse
e|-------------------|
B|-------------------|
G|-------------------|
D|-3333333--5555555--|x2
A|-3333333--5555555--|
D|-3333333--5555555--|
PM ....... ........

Again with this "Lo-Fi" Business lol
e|-----------------------------------|
B|-----------------------------------|
G|-555555----555555----444444----44--|
D|-555555-33-555555-55-555555-55-55--|
A|--------33--------55--------55-----|
D|--------33--------55--------55-----|

Then this again
e|-----------------|
B|-----------------|
G|---44444h555-----|
D|---555555555-----|
A|-----------------|
D|-----------------|

"And Every Smile That You Fake..."
e|-----------------------------------------|
B|-----------------------------------------|
G|-----------------------------------------|
D|-3x33333--7x77777--5x55555--5x55777------|x2
A|-3x33333--7x77777--5x55555--5x55777------|
D|-3x33333--7x77777--5x55555--5x55777------|

Guitar 2
e|-//p------------------------------------------------------------------------|
B|-//i------------------------------------------------------------------------|
G|-//c------------------------------------------------------------------------|
D|-//k5x55555/10x1010101010\9x99999-9x99h101010-5x55555/10x10101010\9~9h10\5~-|
A|-//s------------------------------------------------------------------------|
D|-//l.-----------------------------------------------------------------------|

Guitar 1
e|-------------------------------------------------------------|
B|-------------------------------------------------------------|
G|-------------------------------------------------------------|
D|-3x33333--7x77777--5x55555--5x55777--3x33333--7x77775~--5h7--|
A|-3x33333--7x77777--5x55555--5x55777--3x33333--7x77775~--5h7--|
D|-3x33333--7x77777--5x55555--5x55777--3x33333--7x77775~--5h7--|

Guitar 1
e|----------------------|
B|----------------------|
G|----------------------|
D|-3~--3-3~--5~--5-5~---|x2
A|-3~--3-3~--5~--5-5~---|
D|-3~--3-3~--5~--5-5~---|

Guitar 2
e|--------------------|
B|--------------------|
G|--4h5--4h5--4h5-----|
D|-----5~---5~---5~---|x8
A|--------------------|
D|--------------------|

Guitar 2
e|--------------------|
B|--------------------|
G|--444444h5555-------|
D|--55555555555-------|
A|--------------------|
D|--------------------|

Chorus AGAIN then this

Guitar 1
e|----------------------|
B|----------------------|
G|----------------------|
D|-3~-7~-5~-7~-3~-7~-5~-|
A|-3~-7~-5~-7~-3~-7~-5~-|
D|-3~-7~-5~-7~-3~-7~-5~-|

Guitar 2
e|---------------------|
B|---------------------|
G|---------------------|
D|-5-10-9-9h10-5-10-9~-|
A|---------------------|
D|---------------------|

END
:woah: that was repetitive. anywho hope this helps, pretty sure it's 100 percent, 
or concerns my email's uptop.

facundo_mundo

http://www.rosesareredmusic.com

| /  slide up
| \  slide down
| h  hammer-on
| p  pull-off
| ~  vibrato
| +  harmonic
| x  quick stop
=============================================================================

            
            
Suggest correction
Creating personal tab
Creating personal tab
You can edit any tab online and save it as your Personal.

You can edit, replace or remove any tab part or add personal notes – all changes will be seen only by you.

Personal tabs can be accessed anytime from any device, even offline.
Learn more »
Give kudos to tab author, rate the tab!
1 2 3 4 5
comments
print report bad tab
1 comment total.
0 reply
ibanezeric82 103 Jan 06, 2012 03:01 PM

You got all the notes right. But, they do play this part:

D|-55555/1010101010\9999999h101010-55555/10101010\9~9h10\5~|

as octave chords.

So it would be these.
G|--12--17--16------|
D|---x---x---x------|
A|--10--15--14------|

B|---8--13--12------|
G|---x---x---x------|
D|---5--10---9------|

guest
You may want to rate the tab now too:
select rating
Wanna post a correction for this tab? Suggest correction