Oops, an error
Loading. Please wait.

Je Nen Connais Pas La Fin tab

by Rosetta
1,110 views 1 this week
no commentswrite comment
1 2 3 4 5
3 more votes to show rating
add to favorites
×
Save as Personal and add changes to this tab that will be seen only by you. Learn more ›
×
You can save this tab as Personal to edit and correct it or add notes. All changes will be seen only by you. Learn more »
launch autoscroll
font size
0
reset
how to read this tab
guitar tuner
edit
Autoscroll
slow
fast
+/-
esc
set tempo
stop
-------------------------------------------------------------------------------
                 Je N'en Connais Pas La Fin - Rosetta
-------------------------------------------------------------------------------
Tabbed by: Sludgehead
E-mail:

This is all guitar parts and bass parts of the Rosetta song Je N'en Connais Pas La Fin.


Tuning: A# F A# D# G C

Have a real high reverb and delay.

|---------------------------------------------------------------------------------------------------------|
|--4-4-4--4-4-4--4-4-4----------------------4-4-4--4-4-4--6-6--8-8-8-8--10-10-10-10-10--11-11-11-11-11-11-|
|----------------------3-3-3--3-3-3--3-3-3----------------------------------------------------------------|
|---------------------------------------------------------------------------------------------------------|
|---------------------------------------------------------------------------------------------------------|
|---------------------------------------------------------------------------------------------------------|

|---------------------------------------------------------------------------------------------------------|
|-8-8-8-8-8-8-8--11-11-11-11-11-11-11--10-10-10-10-10-10-10--13-13-13-13-13-13--16-16-16-16-16-16---------|
|---------------------------------------------------------------------------------------------------------|
|---------------------------------------------------------------------------------------------------------|
|---------------------------------------------------------------------------------------------------------|
|---------------------------------------------------------------------------------------------------------|

|---------------------------------------------------------------------------------------------------------|
|-13-13-13-13-13-13--15-15-15-15-15-15--11-11-11-11-11-11--10-10-10-10-10-10-10-6-6-6-6-6-6--8-8-8-8-8-8--|
|---------------------------------------------------------------------------------------------------------|
|---------------------------------------------------------------------------------------------------------|
|---------------------------------------------------------------------------------------------------------|
|---------------------------------------------------------------------------------------------------------|

|--------------------------------------------------------------------------------------------------------|
|-11-11-11-11-11-11--10-10-10-10-10-10--11-11-11-11-11-11--13-13-13-13-13-13-15-15-15-15-15-15-----------|
|--------------------------------------------------------------------------------------------------------|
|--------------------------------------------------------------------------------------------------------|
|--------------------------------------------------------------------------------------------------------|
|--------------------------------------------------------------------------------------------------------|

|---------------------------------------------------------------------------------------------18-18-18-18-|
|-18-18-18-18-18-18--20-20-20-20-20-20--16-16-16-16-16-16--18-18-18-18-18-18-22-22-22-22-22-22------------|
|---------------------------------------------------------------------------------------------------------|
|---------------------------------------------------------------------------------------------------------|
|---------------------------------------------------------------------------------------------------------|
|---------------------------------------------------------------------------------------------------------|

Play this through out the part above, repeating.
G|---------------------------------------------------------------------------|
D|-------------------------------1---1-1-1--1-1-1--1-1-1--4------------------|
A|-2---2-2-2--2-2-2--2-2-2--2------------------------------------------------|
E|---------------------------------------------------------------------------|

G|---------------------------------------------------------------------------|
D|-------------------------------1-1-----------------------------------------|
A|-2---2-2-2--2-2-2--2-2-2--2------------------------------------------------|
E|-------------------------------------4--4--4--4----------------------------|


Guitar 1: Repeat twice. Fairly high gain.
Tremolo picking
|-15-15-15-15-15-15--17-17-17-17-17-17--18-18-18-18-18-18--20-20-20-20-20-20-|
|----------------------------------------------------------------------------|
|----------------------------------------------------------------------------|
|----------------------------------------------------------------------------|
|----------------------------------------------------------------------------|
|----------------------------------------------------------------------------|

|-17-17-17-17-17-17--18-18-18-18-18-18--|
|---------------------------------------|
|---------------------------------------|
|---------------------------------------|
|---------------------------------------|
|---------------------------------------|

Guitar 2: Repeat twice.
Also Tremolo picked.
|----------------------------------------------------------------------|
|-15-15-15-15-15-15--11-11-11-11-11-11--8-8-8-8-8-8--11-11-11-11-11-11-|
|----------------------------------------------------------------------|
|----------------------------------------------------------------------|
|----------------------------------------------------------------------|
|----------------------------------------------------------------------|

|---------------------------------------|
|-13-13-13-13-13-13--10-10-10-10-10-10--|
|---------------------------------------|
|---------------------------------------|
|---------------------------------------|
|---------------------------------------|

Bass: Repeat twice.

G|---------------------------------------------------------------------------|
D|---------------------------------------------------------------------------|
A|---------------------------------------------------------------------------|
E|-7-7-7-7--7-7-7--7-7---7-7-7-7--7-7-7-7--7-7-7--7-7------------------------|

Break 1
The bass does the same as above throughout this part. Palm mute each section.
the guitars need somewhat higher gain here, and no reverb or delay.
|---------------------------------------------------------------------------|
|---------------------------------------------------------------------------|
|---------------------------------------------------------------------------|
|---------------------------------------------------------------------------|
|-13-13-13-13--13-13-13--13-13---13-13-13-13--13-13-13-13--13-13-13--13-13--|
|-13-13-13-13--13-13-13--13-13---13-13-13-13--13-13-13-13--13-13-13--13-13--|

Guitar 1
Tremolo Pick
Let the last notes ring.
|10-10-10-10-10-11-11-11-11-11-8-8-8-8-10-10-10-10-10-15-15-15-15-15-18-18-18-18-18-15-15-15-15-15-10-|
|-----------------------------------------------------------------------------------------------------|
|-----------------------------------------------------------------------------------------------------|
|-----------------------------------------------------------------------------------------------------|
|-----------------------------------------------------------------------------------------------------|
|-----------------------------------------------------------------------------------------------------|
                                                                                 (Let Ring)
|10-10-10-10-10-11-11-11-11-11-8-8-8-8-8-10-10-10-10-10-15-15-15-15-15-18-18-18-18-18-15-15-15-15-15-20|
|------------------------------------------------------------------------------------------------------|
|------------------------------------------------------------------------------------------------------|
|------------------------------------------------------------------------------------------------------|
|------------------------------------------------------------------------------------------------------|
|------------------------------------------------------------------------------------------------------|
Guitar 2
(Each not rings until the next)
|-15----------16----------14------10----------6-----------6-----------16---------11--------|
|------------------------------------------------------------------------------------------|
|------------------------------------------------------------------------------------------|
|------------------------------------------------------------------------------------------|
|------------------------------------------------------------------------------------------|
|------------------------------------------------------------------------------------------|

|-10----------6-----------8-------11----------10-------------------------------------|
|------------------------------------------------------------------------------------|
|------------------------------------------------------------------------------------|
|------------------------------------------------------------------------------------|
|------------------------------------------------------------------------------------|
|------------------------------------------------------------------------------------|

Bass
Repeat this throughout
G|-9----------11----------6-------9-----------11---------10-----------7-------------------------|
D|----------------------------------------------------------------------------------------------|
A|----------------------------------------------------------------------------------------------|
E|----------------------------------------------------------------------------------------------|

Second Instrumental Break.
Guitar 1
Tremolo Pick
|-11-11-11-11-11-11-11-11-11-11-10-10-10-10-10-10-10-10-10-13-13-13-13-13-13-13-13-13-13--|
|-----------------------------------------------------------------------------------------|
|-----------------------------------------------------------------------------------------|
|-----------------------------------------------------------------------------------------|
|-----------------------------------------------------------------------------------------|
|-----------------------------------------------------------------------------------------|

|-10-10-10-10-10-10-10-10-10-10-15-15-15-15-15-15-15-15-15-15-18-18-18-18-18-18-18-18-18----------------|
|-------------------------------------------------------------------------------------------------------|
|-------------------------------------------------------------------------------------------------------|
|-------------------------------------------------------------------------------------------------------|
|-------------------------------------------------------------------------------------------------------|
|-------------------------------------------------------------------------------------------------------|

|-19-19-19-19-19-19-19-19-19-20-20-20-20-20-20-20-20-20-15-15-15-15-15-15-15-15-15-15-------------------|
|-------------------------------------------------------------------------------------------------------|
|-------------------------------------------------------------------------------------------------------|
|-------------------------------------------------------------------------------------------------------|
|-------------------------------------------------------------------------------------------------------|
|-------------------------------------------------------------------------------------------------------|

|-20-20-20-20-20-20-20-20-15-15-15-15-15-15-15-15-15-15-------------------------------------------------|
|-------------------------------------------------------------------------------------------------------|
|-------------------------------------------------------------------------------------------------------|
|-------------------------------------------------------------------------------------------------------|
|-------------------------------------------------------------------------------------------------------|
|-------------------------------------------------------------------------------------------------------|

Guitar 2
Tremolo Pick
|-----------------------------------------------------------------------------------------------------------|
|-8-8-8-8-8-8-8-8-8-8-11-11-11-11-11-11-11-11-11-11-10-10-10-10-10-10-10-10-10-10-13-13-13-13-13-13-13-13-13|
|-----------------------------------------------------------------------------------------------------------|
|-----------------------------------------------------------------------------------------------------------|
|-----------------------------------------------------------------------------------------------------------|
|-----------------------------------------------------------------------------------------------------------|
|-----------------------------------------------------------------------------------------------------------|

|-----------------------------------------------------------------------------------------------------------|
|-10-10-10-10-10-10-10-10-10-10-11-13-13-13-13-13-13-13-13-13-13-10-6-6-6-6-6-6-6-6-6-6-8-8-8-8-8-8-8-8-8-8-|
|-----------------------------------------------------------------------------------------------------------|
|-----------------------------------------------------------------------------------------------------------|
|-----------------------------------------------------------------------------------------------------------|
|-----------------------------------------------------------------------------------------------------------|
|-----------------------------------------------------------------------------------------------------------|

|-------------------------------------------------------------------------------------------------------|
|-11-11-11-11-11-11-11-11-11-11-13-13-13-13-13-13-13-13-13-13-10-10-10-10-10-10-10-10-10-10-------------|
|-------------------------------------------------------------------------------------------------------|
|-------------------------------------------------------------------------------------------------------|
|-------------------------------------------------------------------------------------------------------|
|-------------------------------------------------------------------------------------------------------|

|-------------------------------------------------------------------------------------------------------|
|-11-11-11-11-11-11-11-11-11-11-10-10-10-10-10-10-10-10-10-10-13-13-13-13-13-13-13-13-13-13-------------|
|-------------------------------------------------------------------------------------------------------|
|-------------------------------------------------------------------------------------------------------|
|-------------------------------------------------------------------------------------------------------|
|-------------------------------------------------------------------------------------------------------|

|-------------------------------------------------------------------------------------------------------|
|-15-15-15-15-15-15-15-15-15-15--19-19-19-19-19-19-19-19-19-19------------------------------------------|
|-------------------------------------------------------------------------------------------------------|
|-------------------------------------------------------------------------------------------------------|
|-------------------------------------------------------------------------------------------------------|
|-------------------------------------------------------------------------------------------------------|

Bass: Repeat Throughout
G|----------------------------------------------------------------------------------------------------------|
D|-9---------9--------------6----------6--------------1----------1------------------------------------------|
A|---------------------------------------------------------------------2-------2-----4----------------------|
E|----------------------------------------------------------------------------------------4-----4-----------|

End part 1

Guitar 1:

|-3----------------6-----------17-17-17-17------13-13-13-13------15-15-15-15------------|
|---------------------------------------------------------------------------------------|
|---------------------------------------------------------------------------------------|
|---------------------------------------------------------------------------------------|
|---------------------------------------------------------------------------------------|
|---------------------------------------------------------------------------------------|

Guitar 2:
Lightly strum.
|-8-8-8-8-8-8-8-8-8-8-8-8-8-8-8-8-8-8-8-8-8-8-8-8-8-------------------------------|
|---------------------------------------------------------------------------------|
|---------------------------------------------------------------------------------|
|---------------------------------------------------------------------------------|
|---------------------------------------------------------------------------------|
|---------------------------------------------------------------------------------|

Bass

G|-----------------------------------------------------------------------------------------|
D|-1-1-1-1-1--1-1-1-1-1--1-1-1-------------------------------------------------------------|
A|------------------------------4-4-4-4-4--4-4-4-4-4--4-4-4--1-1-1-1-1-1--1-1-1-1-1--1-1-1-|
E|-----------------------------------------------------------------------------------------|

G|-------------------------------------------------------------------------------------------------------|
D|-------------------------------------------------------------------------------------------------------|
A|-2-2-2-2-2--2-2-2-2-2--2-2-2---------------------------------------------------------------------------|
E|-------------------------------------------------------------------------------------------------------|

Ending part 2

|---------------------------------------------------------------------------------------------------|
|---------------------------------------------------------------------------------------------------|
|---------------------------------------------------------------------------------------------------|
|---------5----------5------5----------3----------3------3----------0----------0------0-------------|
|---------5----------5------5----------3----------3------3----------0----------0------0-------------|
|-5-5-5-5-5--5-5-5-5-5--5-5-5--3-3-3-3-3--3-3-3-3-3--3-3-3--0-0-0-0-0--0-0-0-0-0--0-0-0-------------|

|-------------------------------|
|-------------------------------|
|-------------------------------|
|---------1----------1--------1-|
|---------1----------1--------1-|
|-1-1-1-1-1--1-1-1-1-1--1-1-1-1-|

Bass

G|-----------------------------------------------------------------------------------------|
D|-1-1-1-1-1--1-1-1-1-1--1-1-1-------------------------------------------------------------|
A|------------------------------4-4-4-4-4--4-4-4-4-4--4-4-4--1-1-1-1-1-1--1-1-1-1-1--1-1-1-|
E|-----------------------------------------------------------------------------------------|

G|-------------------------------------------------------------------------------------------------------|
D|-------------------------------------------------------------------------------------------------------|
A|-2-2-2-2-2--2-2-2-2-2--2-2-2---------------------------------------------------------------------------|
E|-------------------------------------------------------------------------------------------------------|

************************************

| /   slide up
| \   slide down
| h   hammer-on
| p   pull-off
| ~   vibrato
| +   harmonic
| x   Mute note
| b   Bend
| pb  Pre-bend
| br  Bend release
| pbr Pre-bend release
| brb Bend release bend

************************************

            
            
Suggest correction
Creating personal tab
Creating personal tab
You can edit any tab online and save it as your Personal.

You can edit, replace or remove any tab part or add personal notes – all changes will be seen only by you.

Personal tabs can be accessed anytime from any device, even offline.
Learn more »
Give kudos to tab author, rate the tab!
1 2 3 4 5
comments
print report bad tab
guest
You may want to rate the tab now too:
select rating
Wanna post a correction for this tab? Suggest correction