Oops, an error
Loading. Please wait.

Rozen-E-Dewaar bass

by Roxen
238 views 1 this week
no commentswrite comment
1 2 3 4 5
3 more votes to show rating
add to favorites
×
Save as Personal and add changes to this tab that will be seen only by you. Learn more ›
×
You can save this tab as Personal to edit and correct it or add notes. All changes will be seen only by you. Learn more »
launch autoscroll
font size
0
reset
guitar tuner
edit
Autoscroll
slow
fast
+/-
esc
set tempo
stop
Author
well this is my first tab , hope u appreciate it

Riff 1
from 0:00 to 0:13
E|7777--3333--5555--33--55------------------------------|
A|------------------------------------------------------|    x2 times
D|------------------------------------------------------|
G|------------------------------------------------------|

Riff 2
from 13:00 to 37:00 (the distortion part)
E|--577-575--233-232------------------------------------|
A|--------------------5s7s9--12s77----------------------|
D|------------------------------------------------------|   X4 times
G|------------------------------------------------------|

Riff 3
vocals start , chal rahe hai.......
E|-7-----3-0h3p0--5----5--------------------------------|
A|-----45-----------45----------------------------------|
D|------------------------------------------------------|   X4 times
G|------------------------------------------------------|

again Riff 1 X4 times
then  Riff 2 X2 times (chorus)
      Riff 3 X6 times
      Riff 1 X4 times
      Riff 2 X2 times (chorus)

now the solo , it's pretty simple
E|------------------------------------------------------|
A|--455-455-455-455-4555--------------------------------|
D|------------------------------------------------------|  repeat till it
G|------------------------------------------------------|  sounds good....

now when the back vocals come "maut se lad jaa...."
use Riff 1

now chorus Riff 2 on "rozen-e-dewaar aa aaa...."till end

use this on end... , hit the seveth fret as gud as u can...
E|--577-5777777-----------------------------------------|
A|------------------------------------------------------|
D|------------------------------------------------------|
G|------------------------------------------------------|

please comment and rate......at fashion_dude@1993@yahoo.com

            
            
Suggest correction
Creating personal tab
Creating personal tab
You can edit any tab online and save it as your Personal.

You can edit, replace or remove any tab part or add personal notes – all changes will be seen only by you.

Personal tabs can be accessed anytime from any device, even offline.
Learn more »
Give kudos to tab author, rate the tab!
1 2 3 4 5
comments
print report bad tab
guest
You may want to rate the tab now too:
select rating
Wanna post a correction for this tab? Suggest correction