Oops, an error
Loading. Please wait.

Listen To Your Heart solo tab

version 1
version 1

Solo

Whole song

Interactive

by Roxette
913 views 15 this week
no commentswrite comment
1 2 3 4 5
2 more votes to show rating
add to favorites
×
Save as Personal and add changes to this tab that will be seen only by you. Learn more ›
×
You can save this tab as Personal to edit and correct it or add notes. All changes will be seen only by you. Learn more »
launch autoscroll
font size
0
reset
how to read this tab
guitar tuner
edit
Autoscroll
slow
fast
+/-
esc
set tempo
stop
Author
I noticed there was no accurate tabs for the Solo for Listen to your Heart, I decided to do it because 
its going to be on my upcoming EP, and I Figured everyone should have the Joy of learning it!
It is one great song!    Per Gessle and Marie Fredriksson Really nailed this one and made a classic for
the ages!

Also, listen to the song for appropriate timing

Tab by King Kenroy



e|--------------------------------------------------------------------------------------------|
B|--------------------------------------------------------------------------------------------|
G|---14b16r14 14b16r14~----------------------------9b10r9p7-----------------------------------|
D|-----------------------------------------------------------9p7h9~---------------------------|
A|------------------------15/2------5/7\5-----------------------------------------------------|
E|--------------------------------------------------------------------------------------------|

e|--------------------------------------------------------------------------------------------|
B|----------------------6-7/10---------------17br-17b19pbr~-------17p115p14-------------------|
G|----------6-7p6--------------9/11~----------------------------------------16----------------|
D|-----7--9-------7---------------------------------------------------------------------------|
A|------------------7-------------------------------------------------------------------------|
E|--------------------------------------------------------------------------------------------|




e|--------------------------------------------------------------------------------------------|
B|---------------------8/14-14br----12------12~-----------------------------------------------|
G|--------------------------------------15---------14-12-11-----------------------------------|
D|--14h16p14-------------------------------------------------14/16\14----12--14-12h14---------|
A|------------17~-----------------------------------------------------------------------------|
E|--------------------------------------------------------------------------------------------|

e|--------------------------------------------------------------------------------------------|
B|--------------------------------------------------------------------------------------------|
G|--------------------------------------------------------------------------------------------|
D|--12-11-12p11\9\7/9-9~----------------------------------------------------------------------|
A|--------------------------------------------------------------------------------------------|
E|--------------------------------------------------------------------------------------------|


************************************
 
| h   Hammer-on
| p   Pull-off
| r   Release
| b   Bend
| br  Bend release
| pb  Pre-bend
| pbr Pre-bend release
| /   Slide up
| \   Slide down
| ~   Vibrato

************************************

            
            
Suggest correction
Creating personal tab
Creating personal tab
You can edit any tab online and save it as your Personal.

You can edit, replace or remove any tab part or add personal notes – all changes will be seen only by you.

Personal tabs can be accessed anytime from any device, even offline.
Learn more »
Give kudos to tab author, rate the tab!
1 2 3 4 5
comments
print report bad tab
guest
You may want to rate the tab now too:
select rating
Wanna post a correction for this tab? Suggest correction