Oops, an error
Loading. Please wait.

Crash tab

by Roy7
128 views 1 this week
2 commentsread comments
1 2 3 4 5
3 more votes to show rating
add to favorites
×
Save as Personal and add changes to this tab that will be seen only by you. Learn more ›
×
You can save this tab as Personal to edit and correct it or add notes. All changes will be seen only by you. Learn more »
launch autoscroll
font size
0
reset
how to read this tab
guitar tuner
edit
Autoscroll
slow
fast
+/-
esc
set tempo
stop
Difficulty
intermediate
Intro
e|------------------------------------------------------------------|
B|------------------------------------------------------------------|
G|---7-7-7--7-7-7--7-7-7--6-6-6--3-3-3-----10--10-10--12-12-13-15---|
D|---5-5-5--5-5-5--5-5-5--4-4-4--1-1-1-----8---8--8---8--8--8--8----|
A|---5-5-5--5-5-5--4-4-4--4-4-4--1-1-1-----8---8--8---8--8--8--8----|
E|------------------------------------------------------------------|
verse
e|--------------------------------------------------------------------|
B|--------------------------------------------------------------------|
G|-6-6---------------6-6--7-6-6---------------------------------------|
D|-4-4-6-6-7-7--6-6--4-6--5-4-4---------------------------------------|x2
A|-4-4-4-4-5-5--6-6--4-4--5-4-4---------------------------------------|
E|-----4-4-5-5--4-4---------------------------------------------------|

e|---------------------------------------------------|
B|---------------------------------------------------|
G|-76-666-7-9-4-4-6-6--------------------------------|
D|-54-444-5-7-4-4-4-4-6-6-6--------------------------|
A|-54-444-5-7-2-2-4-4-4-4-4--------------------------|
E|--------------------4-4-4--------------------------|
i'm still undefeated


The only light up ahead
Is closing in on me

chorus

e|-----------------------------|
B|-----------------------------|
G|--7--7--7-7-7-7--6-9-7-7-----|
D|--5--5--5-5-5-5--4-7-5-5-----|
A|--5--5--5-5-5-5--4-7-5-5-----|
E|-----------------------------|
Crash, crash
I'm still waiting

e|-----------------------------|
B|-----------------------------|
G|--7--7--7-7-7-7--6-9-7-7-----|
D|--5--5--5-5-5-5--4-7-5-5-----|
A|--5--5--5-5-5-5--4-7-5-5-----|
E|-----------------------------|
Now, now
Liberate me

e|------------------------------------------|
B|------------------------------------------|
G|---6-6-6----------------------------------|
D|---4-4-4--6-6-4-4-2-4-4-4-----------------|
A|---4-4-4--4-4-2-2-2-2-2-2-----------------|
E|----------4-4-2-2-0-2-2-2-----------------|
Everyone,
you know is at you

e|---------------------------------------------|
B|---------------------------------------------|
G|---6-6-6-------------------------------------|
D|---4-4-4--6-6-4-4-2-4-4-4--6-6-6-------------|
A|---4-4-4--4-4-2-2-2-2-2-2--4-4-4-------------|
E|----------4-4-2-2-0-2-2-2--4-4-4-------------|
Every face,
is unattractive now

            
            
Suggest correction
Creating personal tab
Creating personal tab
You can edit any tab online and save it as your Personal.

You can edit, replace or remove any tab part or add personal notes – all changes will be seen only by you.

Personal tabs can be accessed anytime from any device, even offline.
Learn more »
Give kudos to tab author, rate the tab!
1 2 3 4 5
comments
print report bad tab
2 comments total.
0 reply
deniz... 10 Feb 09, 2008 08:33 AM

i sent this tab.........This is mine!

0 reply
deniz... 10 Feb 09, 2008 08:37 AM

this is not Unregistered this is my tab!!!!!!!!!!!!!!!!

guest
Wanna post a correction for this tab? Suggest correction