Oops, an error
Loading. Please wait.

Save Me tab

version 1
version 1

Whole song

Interactive

3,138 views 6 this week
4 commentsread comments
1 2 3 4 5
2 more votes to show rating
add to favorites
×
Save as Personal and add changes to this tab that will be seen only by you. Learn more ›
×
You can save this tab as Personal to edit and correct it or add notes. All changes will be seen only by you. Learn more »
launch autoscroll
font size
0
reset
how to read this tab
guitar tuner
edit
Autoscroll
slow
fast
+/-
esc
set tempo
stop
Artist: Royal Bliss
Song: Save Me
Album: Life In-Between

Tuning: Half-step down Eb Ab Db Gb Bb Eb

*Listen closely for the picking patterns throughout the song. I tried my
  best with these.  Some parts have the slightest gaps in between them even 
  though I've notated them together.  For example, I have chords listed many 
  times throughout here that are in sets of 3, then a space, then a 
  following fourth one, and there is a very slight gap in between the 2nd 
  chord and the 3rd chord.  They use this picking pattern throughout the 
  entire song. It was difficult to tab out the picking patterns, but if
  you listen to the song, it'll all make sense.
*And read the notes on the sides and in the tabs.

0:00
Distorted
Eb -------------------|
Bb -------------------|
Gb -------------------|
Db --999-9------------|
Ab --777-7------------|
Eb --------0-0-0-(x4)-|

0:07                                a.h.
Eb ---------------------------------------------------|
Bb -----------------------------------7---------------|
Gb ----------------------------------7----------------| Harmonics just on the
Db --999-9--------999-9-------777-7-7----777-74-4-4---| three 7's
Ab --777-7--------777-7-------555-5------555-52-2-2---|
Eb --------0-0-0--------0-0-0-------------------------|

                                    a.h.
Eb ---------------------------------------------------|
Bb ----------------------------------7----------------|
Gb -----------------------------------7---------------|
Db --999-9--------999-9-------777-7-7----777-74-4-4---|
Ab --777-7--------777 7-------555-5------555-52-2-2---|
Eb --------0-0-0--------0-0-0-------------------------|

0:20 Guitar 1
Acoustic
          *(see below)
Eb --222-2-222-2-222-2-222-2--0h2-2-22-2222-333-3-2-2-2--| This picking
Bb --555-5-555-5-555-5-555-5--3---3-33-3333-333-3-3-3-3--| pattern is a
Gb --444-4-444-4-444-4-444-4--2---2-22-2222-222-2-2-2-2--| little difficult
Db --222-2-222-2-222-2-222-2--0---0-00-0000-000-0-0-0-0--| to tab so just
Ab ------------------------------------------------------| listen closely, 
Eb -------------------------------------------------(x2)-| but these are the
                                                           right chords

*Every other time they do a slight variation on this where the star is:
Eb --222-2-0-022-222-2-222-2-----------------------------|
Bb --555-5-5-555-555-5-555-5-----------------------------| This variation is
Gb --444-4-4-444-444-4-444-4-----------------------------| included as part
Db --222-2-2-222-222-2-222-2-----------------------------| of the '(x2)' as
Ab ---------------------(Etc. and the rest is the same---| shown above
Eb ---------------------------as above)------------------|

0:34 Guitar 2 
Light distortion                  Heavy distorion
Eb ---------------------|-------------------------|
Bb ---------------------|-------------------------|
Gb ---------------------|-------------------------|
Db ---------------------|--------------777-74-4-4-|
Ab --2---4-5-4----/9-7--|-2---4-5-4----555-52-2-2-|
Eb ---------------------|-------------------------|

0:34 Guitar 1 continued
          *
Eb --222-2-222-2-222-2-222-2--0h2-2-22-2222-333-3-2-2-2--| 
Bb --555-5-555-5-555-5-555-5--3---3-33-3333-333-3-3-3-3--| 
Gb --444-4-444-4-444-4-444-4--2---2-22-2222-222-2-2-2-2--| 
Db --222-2-222-2-222-2-222-2--0---0-00-0000-000-0-0-0-0--| 
Ab ------------------------------------------------------|  
Eb -------------------------------------------------(x2)-| 
                                                           
0:48 
Distorted
      *St
Eb -------------------------------------------|
Bb ----8--------------------------------------|                          8
Gb ----9---7---4-4-4-4/5-5-5--7---4-4-4-------|  *St=Strum               9
Db ----9---7---4-4-4-4/5-5-5--7---4-4-4-------|    So do a strum for the 9
Ab --------5---2-2-2-2/3-3-3--5---2-2-2--(x2)-|
Eb -0-----------------------------------------|

1:02                                a.h.
Eb ---------------------------------------------------|
Bb -----------------------------------7---------------|
Gb ----------------------------------7----------------|
Db --999-9--------999-9-------777-7-7----777-74-4-4---|
Ab --777-7--------777 7-------555-5------555-52-2-2---|
Eb --------0-0-0--------0-0-0-------------------------|

1:09 Guitar 1
Acoustic
          *
Eb --222-2-222-2-222-2-222-2--0h2-2-22-2222-333-3-2-2-2--| 
Bb --555-5-555-5-555-5-555-5--3---3-33-3333-333-3-3-3-3--| 
Gb --444-4-444-4-444-4-444-4--2---2-22-2222-222-2-2-2-2--| 
Db --222-2-222-2-222-2-222-2--0---0-00-0000-000-0-0-0-0--| 
Ab ------------------------------------------------------|  
Eb -------------------------------------------------(x2)-| 

1:09 Guitar 2
Light distortion
Eb ---------------------|-----------------------|
Bb ---------------------|-----------------------|
Gb ---------------------|-----------------------|
Db ---------------------|-----------------------|
Ab --2---4-5-4----/9-7--|-2---4-5-4----/5-4-----|
Eb ---------------------|-----------------------|

Guitar 1 continued
Acoustic
          *
Eb --222-2-222-2-222-2-222-2--0h2-2-22-2222-333-3-2-2-2--| 
Bb --555-5-555-5-555-5-555-5--3---3-33-3333-333-3-3-3-3--| 
Gb --444-4-444-4-444-4-444-4--2---2-22-2222-222-2-2-2-2--| 
Db --222-2-222-2-222-2-222-2--0---0-00-0000-000-0-0-0-0--| 
Ab ------------------------------------------------------|  
Eb -------------------------------------------------(x2)-| 

Guitar 2 continued
Light distortion                       Heavy distorion
Eb ---------------------|-------------------------|
Bb ---------------------|-------------------------|
Gb ---------------------|-------------------------|
Db ---------------------|--------------777-74-4-4-|
Ab --2---4-5-4----/9-7--|-2---4-5-4----555-52-2-2-|
Eb ---------------------|-------------------------|

1:37
       St
Eb --------------------------------------|
Bb ----8---------------------------------|                          
Gb ----9---7---4-4-4-4/5--5--7---4-4-4---|  
Db ----9---7---4-4-4-4/5--5--7---4-4-4---|    
Ab --------5---2-2-2-2/3--3--5---2-2-2---|
Eb -0------------------------------------|

       St                     
Eb ----------------------------------------------------|
Bb ----8-----------------------------------------------|            
Gb ----9---7---4-4-4-4/5--5--777-7-777-7-777-7-7-7777--|  
Db ----9---7---4-4-4-4/5--5--777-7-777-7-777-7-7-7777--|     
Ab --------5---2-2-2-2/3--3--555-5-555-5-555-5-5-5555--| 
Eb -0--------------------------------------------------| 

1:53 Guitar 1
Eb --------------------------------------|-------------------|
Bb --------------------------------------|-------------------|
Gb --999-9-111111-121212-12-14-14-14-----|-------------------|
Db --------------------------------------|-------------------|
Ab --777-7-9-9-9--101010-10-12-12-12-----|------7~~~-b8b7~---|
Eb ---------------------------------(x4)-|-------------------|

1:53 Guitar 2
Eb --------------------------------------|-------------------|
Bb --------------------------------------|-------------------|
Gb --------------------------------------|-------------------|
Db --999-9-------------------------------|-------------------|
Ab --777-7-9-9-9-555-5-7-7-7-------------|-2-----------------|
Eb --------7-7-7-333-3-5-5-5--(x4)-------|-0-----------------|

2:21
     pm-------------------------------------| 
Eb -----------------------------|------------------------|
Bb -----------------------------|------------------------| There's no pm 
Gb -----------------------------|------------------------| on the last 0
Db -----------------------------|------------------------|
Ab -----------------------------|------------------------|
Eb --000-0-0-0-0-000-0-0-0-(x3)-|-000-0-0-0-0-0----------|

2:35
       St
Eb ------------------------------------------|
Bb ----8-------------------------------------|                 
Gb ----9---7---4-4-4-4/5--5--7---4-4-4-------|  
Db ----9---7---4-4-4-4/5--5--7---4-4-4-------|    
Ab --------5---2-2-2-2/3--3--5---2-2-2-------|
Eb -0-----------------------------------(x2)-|

       St
Eb ------------------------------------------|
Bb ----8-------------------------------------|                          
Gb ----9---7---4-4-4-4/5--5--7---------------|  
Db ----9---7---4-4-4-4/5--5--7---------------|    
Ab --------5---2-2-2-2/3--3--5---7-5-4-------|
Eb -0----------------------------5-3-2--(x2)-|

3:03                                a.h.
Eb -------------------------------------------------|
Bb ----------------------------------7--------------|
Gb -----------------------------------7-------------|
Db --999-9--------999-9-------777-7-7----777-7444---|
Ab --777-7--------777-7-------555-5------555-5222---|
Eb --------0-0-0--------0-0-0-----------------------|


CP

            
            
Suggest correction
Creating personal tab
Creating personal tab
You can edit any tab online and save it as your Personal.

You can edit, replace or remove any tab part or add personal notes – all changes will be seen only by you.

Personal tabs can be accessed anytime from any device, even offline.
Learn more »
Give kudos to tab author, rate the tab!
1 2 3 4 5
comments
print report bad tab
4 comments total. Showing first comments.
-1 reply
kams1971 10 Apr 05, 2009 09:29 AM

I think the intro is more like this:
||-----------------------------|-----------------------------|
||-----------------------------|-----------------------------|
||--9--9--9--9--9-----9--9--9--|--9--9--9--9--9-----9--9--9--|
||-----------------------------|-----------------------------|
||--7--7--7--7--7-----7--7--7--|--7--7--7--7--7-----7--7--7--|
||--0--0--0--0--0-----7--7--7--|--0--0--0--0--0-----7--7--7--|



-----------------------------|-----------------------------|
-----------------------------|-----------------------------|
--9--9--9--9--9-----9--9--9--|--9--9--9--9--9-----9--9--9--|
-----------------------------|-----------------------------|
--7--7--7--7--7-----7--7--7--|--7--7--7--7--7-----7--7--7--|
--0--0--0--0--0-----7--7--7--|--0--0--0--0--0-----7--7--7--|



-----------------------------|-----------------------------|
-----------------------------|-----------------------------|
--9--9--9--9--9-----9--9--9--|--9--9--9--9--9-----9--9--9--|
-----------------------------|-----------------------------|
--7--7--7--7--7-----7--7--7--|--7--7--7--7--7-----7--7--7--|
--0--0--0--0--0-----7--7--7--|--0--0--0--0--0-----7--7--7--|

0 reply
kams1971 10 Apr 05, 2009 09:34 AM

then: NH NH NH


-----------------------------------|--------------------------|
----------------------------7----|--------------------------|
--7---7--7--7--7-------7---------|--7--7--7--7--7--4--4--4--|
--7---7--7--7--7--7--------------|--7--7--7--7--7--4--4--4--|
--5---5--5--5--5-------------------|--5--5--5--5--5--2--2--2--|
-----------------------------------|--------------------------|

W
-------------------||
-------------------||
-------------------||
--2----------------||
--2----------------||
--0----------------||

0 reply
kams1971 10 Apr 05, 2009 09:39 AM

natural harmonics should be over the s

guest
Wanna post a correction for this tab? Suggest correction