Oops, an error
Loading. Please wait.

Blood Hands tab

7,126 views 81 this week
1 commentread comment
1 2 3 4 5
x 6
add to favorites
×
Save as Personal and add changes to this tab that will be seen only by you. Learn more ›
×
You can save this tab as Personal to edit and correct it or add notes. All changes will be seen only by you. Learn more »
launch autoscroll
font size
0
reset
how to read this tab
guitar tuner
edit
Autoscroll
slow
fast
+/-
esc
set tempo
stop
Author
Difficulty
-------------------------------------------------------------------------------
                           Blood Hands - Royal Blood
-------------------------------------------------------------------------------
Tabbed by: Catt Collins

Tuning: C# / Db Standard
Verse 1
e|---------------------------------------------------------------------------|
B|---------------------------------------------------------------------------|
G|---------------------------------------------------------------------------|
D|---------------------------------------------------------------------------|
A|---------------------------------------------------------------------------|
E|-1\9---(continue 9th fret until break 1)-----------------------------------|

Break 1
e|---------------------------------------------------------------------------|
B|---------------------------------------------------------------------------|
G|---------------------------------------------------------------------------|
D|---------------------------------------------------------------------------|
A|---------------------------------------------------------------------------|
E|-5-5-5-5-5-5-5-5-5-5-5-5/2-2-2-2-2-2-2-2-2-2-2-2\9-------------------------|

Verse 2
e|---------------------------------------------------------------------------|
B|---------------------------------------------------------------------------|
G|---------------------------------------------------------------------------|
D|---------------------------------------------------------------------------|
A|---------------------------------------------------------------------------|
E|-1\9---(continue 9th fret until break 2)-----------------------------------|

Break 2
e|---------------------------------------------------------------------------|
B|---------------------------------------------------------------------------|
G|---------------------------------------------------------------------------|
D|---------------------------------------------------------------------------|
A|---------------------------------------------------------------------------|
E|-5-5-5-5-5-5-5-5-5-5-5-5/2-2-2-2-2-2-2-2-2-2-2-2\9(continue to chorus)-----|

Chorus
e|---------------------------------------------------------------------------|
B|---------------------------------------------------------------------------|
G|---------------------------------------------------------------------------|
D|-----4-4-4-4-4-4-4\6--6-6--6----------------4-4-4-4-4-4-4\6--6-6--6--------|
A|2-2--2-0-2-0-2-0-2\4--4-4--4-9-6-5-4---2-2--2-0-2-0-2-0-2\4--4-4--4-9-6-5-4|
E|0-0--------------------------7-4-3-2---0-0--------------------------7-4-3-2|

e|---------------------------------------------------------------------------------|
B|---------------------------------------------------------------------------------|
G|---------------------------------------------------------------------------------|
D|-----4-4-4-4-4-4-4\6--6-6--6----------------4------------------------------------|
A|2-2--2-0-2-0-2-0-2\4--4-4--4-9-6-5-4---2-2--2------------------------------------|
E|0-0--------------------------7-4-3-2---0-0----9-9-9-9-9-9-9-9-9-9-9-9-9-9-9-9-9--|

Verse 3
e|---------------------------------------------------------------------------|
B|---------------------------------------------------------------------------|
G|---------------------------------------------------------------------------|
D|---------------------------------------------------------------------------|
A|---------------------------------------------------------------------------|
E|-9-9-9-9-9-9-9-9-9-x-x--9-9-9-9-9-9-9-9-9-x-x--9-9-9-9-9-9-9-9-9-x-x--9-9-9|


e|---------------------------------------------------------------------------|
B|---------------------------------------------------------------------------|
G|---------------------------------------------------------------------------|
D|---------------------------------------------------------------------------|
A|---------------------------------------------------------------------------|
E|9-9-9-9-9-9-x-x------------------------------------------------------------|

Break 2
e|----------------------------------------------------------------------------------------------|
B|----------------------------------------------------------------------------------------------|
G|-------------------------------------------------------------------11(bend to half then full--|
D|----------------------------------------------------------------------------------------------|
A|-7-7-7-7-7-7--4-4-4-4-4-4---------------------------------------------------------------------|
E|-5-5-5-5-5-5--2-2-2-2-2-2--9-9-9-9-9-9-9-9-9-x-x--9-9-9-9-9-9-9-9-9---------------------------|

Verse 4
e|------------------------------------------------------------------------------|
B|------------------------------------------------------------------------------|
G|------------------------------------------------------------------------------|
D|-------------------------------------------------------------------------9----|
A|--------------------------------------------------------------------11-7-7-9--|
E|9-9-9-9-9-9-9-9-9-x-x--9-9-9-9-9-9-9-9-9-x-x--9-9-9-9-9-9-9-9-9-x-x--9-5---7--|

e|---------------------------------------------------------------------------|
B|---------------------------------------------------------------------------|
G|---------------------------------------------------------------------------|
D|7-4------------------------------------------------------------------------|
A|7-4------------------------------------------------------------------------|
E|5-2------------------------------------------------------------------------|

Chorus
e|---------------------------------------------------------------------------|
B|---------------------------------------------------------------------------|
G|---------------------------------------------------------------------------|
D|-----4-4-4-4-4-4-4\6--6-6--6----------------4-4-4-4-4-4-4\6--6-6--6--------|
A|2-2--2-0-2-0-2-0-2\4--4-4--4-9-6-5-4---2-2--2-0-2-0-2-0-2\4--4-4--4-9-6-5-4|
E|0-0--------------------------7-4-3-2---0-0--------------------------7-4-3-2|

e|---------------------------------------------------------------------------|
B|---------------------------------------------------------------------------|
G|---------------------------------------------------------------------------|
D|-----4-4-4-4-4-4-4\6--6-6--6-----------------------------------------------|
A|2-2--2-0-2-0-2-0-2\4--4-4--4-9-6-5-4---------------------------------------|
E|0-0--------------------------7-4-3-2---------------------------------------|
Break 1
e|---------------------------------------------------------------------------|
B|---------------------------------------------------------------------------|
G|---------------------------------------------------------------------------|
D|---------------------------------------------------------------------------|
A|-----7-7-7-7-7-7-7-7--4-4-4-4-4-4-4-4--7-7-7-7-7-7-7-7--4-4-4-4-4-4-4-4----|
E|-----5-5-5-5-5-5-5-5--2-2-2-2-2-2-2-2--5-5-5-5-5-5-5-5--2-2-2-2-2-2-2-2----|

e|---------------------------------------------------------------------------|
B|---------------------------------------------------------------------------|
G|---------------------------------------------------------------------------|
D|-6----------------------6----------------------6---------------------------|
A|--4-4-4---4-6-4-----------4-4-4---4-6-4----------4-4-4---4-6-4-------------|
E|--------7-------7-4-2-----------7-------7-4-2----------7-------7-4-2-------|

e|---------------------------------------------------------------------------|
B|---------------------------------------------------------------------------|
G|---------------------------------------------------------------------------|
D|-6----------------------6----------------------6---------------------------|
A|---4-4-4---4-6-4--------------4---4-6-4--------------4---4-6-4-------------|
E|---------7-------7-4-2----5-5---7-------7-4-2----5-5---7-------7-4-2-------|

e|---------------------------------------------------------------------------|
B|---------------------------------------------------------------------------|
G|---------------------------------------------------------------------------|
D|-6---------------------6-----------------------7--4------------------------|
A|---4-4-4---4-6-4---------4-4-4---4-6-4---------7--4------------------------|
E|---------7-------7-4-2---------7-------7-4-2---5--2------------------------|

Verse 1
e|---------------------------------------------------------------------------|
B|---------------------------------------------------------------------------|
G|---------------------------------------------------------------------------|
D|---------------------------------------------------------------------------|
A|---------------------------------------------------------------------------|
E|-1\9---(continue 9th fret until end)---------------------------------------|

***********************************
| /   slide up
| \   slide down
| h   hammer-on
| p   pull-off
| ~   vibrato
| +   harmonic
| x   Mute note
| b   Bend
| pb  Pre-bend
| br  Bend release
| pbr Pre-bend release
| brb Bend release bend

************************************

            
            
Suggest correction
Creating personal tab
Creating personal tab
You can edit any tab online and save it as your Personal.

You can edit, replace or remove any tab part or add personal notes – all changes will be seen only by you.

Personal tabs can be accessed anytime from any device, even offline.
Learn more »
comments
print report bad tab
1 comment total.
+2 reply
Rugbyfurneaux 269 Oct 24, 2016 09:12 PM

Please mark the tuning on the actual tabs not just at the top i almost thought this was super incorrect

guest
You may want to rate the tab now too:
select rating
Wanna post a correction for this tab? Suggest correction