Oops, an error
Loading. Please wait.

Hook Line And Sinker bass

version 2
version 2

Whole song

  • The right tuning has been applied to the tab to re... Show more
  • Transcribed for bass guitar in Drop-D tuning.

Interactive

2,182 views 51 this week
1 commentread comment
1 2 3 4 5
x 3
add to favorites
×
Save as Personal and add changes to this tab that will be seen only by you. Learn more ›
×
You can save this tab as Personal to edit and correct it or add notes. All changes will be seen only by you. Learn more »
launch autoscroll
font size
0
reset
guitar tuner
edit
Autoscroll
slow
fast
+/-
esc
set tempo
stop
About this tab version
Transcribed for bass guitar in Drop-D tuning. Was this info helpful? Yes No
Royal Blood
"Hook, Line & Sinker"

Drop D tuning.


[Intro]

G|--------------------------------|--------------------------------|
D|--------------------------------|--------------------------------|
A|--------------------------------|5-4-3-5-4-3-5-4-3-5-4-0-5\------| x2
D|5-4-3-5-4-3-5-4-3-5-4-0-5\------|--------------------------------|

[Verse]

G|--------------------------------|--------------------------------|
D|----0-------0-3-----0-------0-3-|----0-------0-------------------|
A|--------3b5-------------3b5-----|--------3b5-----3b5-3---3---4---|
D|0---------------0---------------|0-------------------------------|

G|--------------------------------|--------------------------------|
D|----0-------0-3-----0-------0-3-|----0-------0-------0-----------|
A|--------3b5-------------3b5-----|--------3b5-----3b5---3---0-3-0-|
D|0---------------0---------------|0-------------------------------|

G|--------------------------------|--------------------------------|
D|----0-------0-3-----0-------0-3-|----0-------0-------0-----------|
A|--------3b5-------------3b5-----|--------3b5-----3b5---3---0-3-0-|
D|5---------------3---------------|0-------------------------------|

G|--------------------------------|--------------------------------|
D|----0-------0-3-----0-------0-3-|----0-------0-------0-----------|
A|--------3b5-------------3b5-----|--------3b5-----3b5-----0-0-3-3-|
D|0---------------0---------------|0-------------------------------|

G|--------------------------------|--------------------------------|
D|----0-------0-3-----0-------0-3-|----0-------0-------0-----------|
A|--------3b5-------------3b5-----|--------3b5-----3b5---3---0-3-0-|
D|0---------------0---------------|0-------------------------------|

G|--------------------------------|--------------------------------|
D|----0-------0-3-----0-------0-3-|----0-------0-------0-----------|
A|--------3b5-------------3b5-----|--------3b5-----3b5---3---0-3-0-|
D|5---------------3---------------|0-------------------------------|

[Chorus]

G|--------------------5-----------|--------------------------------|
D|----------------5b7----r5-3-5---|----------------5b7-5-3-5-------|
A|--------------------------------|--------------------------5-----|
D|0-------0-----------------------|0-------0-----------------------|

G|--------------------------------|--------------------------------|
D|--------------------------------|--------------------------------|
A|3-------3-------3-------3-2-----|--------------------------------|
D|--------------------------------|5-------5-----3-5-3-----5-3-----|

G|--------------------5-----------|--------------------------------|
D|----------------5b7----r5-3-5---|----------------5b7-5-3-5-------|
A|--------------------------------|--------------------------5-----|
D|0-------0-----------------------|0-------0-----------------------|

G|--------------------------------|------------------------------------------------|
D|--------------------------------|------------------------------------------------|
A|3-------3-------3-------3-2-----|------------------------------------------------|
D|--------------------------------|5-------5-----3-5-3-----5-3-----5-3-----5-3-----|

[Verse]

G|--------------------------------|--------------------------------|
D|----0-------0-3-----0-------0-3-|----0-------0-------------------|
A|--------3b5-------------3b5-----|--------3b5-----3b5-3---3---4---|
D|0---------------0---------------|0-------------------------------|

G|--------------------------------|--------------------------------|
D|----0-------0-3-----0-------0-3-|----0-------0-------0-----------|
A|--------3b5-------------3b5-----|--------3b5-----3b5---3---0-3-0-|
D|0---------------0---------------|0-------------------------------|

G|--------------------------------|--------------------------------|
D|----0-------0-3-----0-------0-3-|----0-------0---5-3-------3-----|
A|--------3b5-------------3b5-----|--------3b5---------5-3-5---5---|
D|5---------------3---------------|0-------------------------------|

G|--------------------------------|--------------------------------|
D|----0-------0-3-----0-------0-3-|----0-------0-3-----0-------0-3-|
A|--------3b5-------------3b5-----|--------3b5-------------3b5-----|
D|0---------------0---------------|0---------------0---------------|

G|--------------------------------|--------------------------------|
D|----0-------0-3-----0-------0-3-|----0-------0-------------------|
A|--------3b5-------------3b5-----|--------3b5---------------------|
D|0---------------0---------------|0-------------------------------|

G|--------------------------------|--------------------------------|
D|----0-------0-3-----0-------0-3-|----0-------0-------0-----------|
A|--------3b5-------------3b5-----|--------3b5-----3b5---3---0-3-0-|
D|5---------------3---------------|0-------------------------------|

[Break]

G|--------------------------------|--------------------------------|
D|--------------------------------|--------------------------------|
A|--------------------------------|5-4-3-5-4-3-5-4-3-5-4-0-5\------| x2
D|5-4-3-5-4-3-5-4-3-5-4-0-5\------|--------------------------------|

[Chorus]

G|--------------------5-----------|--------------------------------|
D|----------------5b7----r5-3-5---|----------------5b7-5-3-5-------|
A|--------------------------------|--------------------------5-----|
D|0-------0-----------------------|0-------0-----------------------|
                                                                     X2
G|--------------------------------|--------------------------------|
D|--------------------------------|--------------------------------|
A|3-------3-------3-------3-2-----|--------------------------------|
D|--------------------------------|5-------5-----3-5-3-----5-3-----|

[Bridge]

G|--------|--------|--------|--------|--------|--------|--------|--------|
D|--------|--------|--------|--------|--------|--------|--------|--------|
A|--------|--------|--------|--------|--------|--------|--------|--------|
D|0-------|(0)-----|(0)-----|(0)-----|(0)-----|(0)-----|(0)-----|(0)-----|

G|-----------------|---------------12b14-----10h12p10~-----|---------------------------10b11---------|
D|-----------------|---------------------------------------|----------------10-----9----------12~----|
A|-----------------|---------------------------------------|------------------11----10---------------|
D|0////////////////|0-------0------------------------------|0-------0--------------------------------|
  *Whammy glissando

[Chorus]

G|--------------------------------|--------------------------------|
D|--------------------------------|--------------------------------|
A|3-------3-------3-------3-2-----|--------------------------------|
D|--------------------------------|5-------5-----3-5-3-----5-3-----|

G|--------------------------------|--------------------------------|
D|--------------------------------|--------------------------------|
A|--------------------------------|--------------------------------|
D|0-------0-------0-------0-3-----|0-------0-------0-------0-3-----|

G|--------------------------------|--------------------------------|
D|--------------------------------|--------------------------------|
A|1-------1-------1-------1-0-----|3-------3-----------------------|
D|--------------------------------|----------------5-3-----5-3-----|

G|--------------------------------|--------------------------------|
D|--------------------------------|--------------------------------|
A|--------------------------------|--------------------------------|
D|5-------5-------5-------5-------|3-------3-------3-------3-2-----|

G|--------------------------------|--------------------------------|
D|--------------------------------|--------------------------------|
A|1-------1-------1-------1-0-----|3-------3-----------------------|
D|--------------------------------|----------------5-5-5-5-5-3-----|

[Outro]

G|--------------------------------|--------------------------------|
D|--------------------------------|--------------------------------|
A|--------3b5-------------3b5-----|--------3b5---------------------|
D|0---0-----------0---0-----------|0---0-----------5-4-3-5-4-3-5-4-|

G|--------------------------------|--------------------------------|
D|--------------------------------|--------------------------------|
A|--------3b5-------------3+------|--------3b5---------------------|
D|0---0-----------3---0-----------|0---0-----------5-4-3-5-4-3-5-4-|

G|--------5~--\-----------7~--\---|--------5~--\-------------------|
D|--------------------------------|--------------------------------|
A|--------------------------------|--------------------------------|
D|0---0-----------0---0-----------|0---0-----------5-4-3-5-4-3-5---|

G|--------------------------------|--------------------------------|
D|--------------------------------|--------------------------------|
A|--------------------------------|--------------------------------|
D|5-4-3-5-4-3-5---7-6-5-7-6-5-7-6-|0---------------/---------------|



************************************

| (n) Continue holding note
| h   Hammer-on
| p   Pull-off
| +   Harmonic
| r   Release
| b   Bend
| /   Slide up
| \   Slide down
| ~   Vibrato

************************************

            
            
Suggest correction
Creating personal tab
Creating personal tab
You can edit any tab online and save it as your Personal.

You can edit, replace or remove any tab part or add personal notes – all changes will be seen only by you.

Personal tabs can be accessed anytime from any device, even offline.
Learn more »
Give kudos to tab author, rate the tab!
1 2 3 4 5
comments
print report bad tab
1 comment total.
0 reply
mellocellist3 73 May 21, 2017 12:03 AM

Great Job! I like this one better than the other one because i don't have to tune up to that weird tuning the guy on the other tab has (it's so impractical)

guest
You may want to rate the tab now too:
select rating
Wanna post a correction for this tab? Suggest correction