Oops, an error
Loading. Please wait.
We have an official How Did We Get So Dark tab made by UG professional guitarists. Check out the tab »
×

How Did We Get So Dark bass

version 1
version 1

Whole song

  • The first tab of this song and I tried to be as accurate as possible.
  • First tab, exactly how Mike plays it in the exact tuning.

Interactive

10,543 views 459 this week
4 commentsread comments
1 2 3 4 5
x 10
add to favorites
×
Save as Personal and add changes to this tab that will be seen only by you. Learn more ›
×
You can save this tab as Personal to edit and correct it or add notes. All changes will be seen only by you. Learn more »
launch autoscroll
font size
0
reset
guitar tuner
edit
Autoscroll
slow
fast
+/-
esc
set tempo
stop
[Verse]

G|----------------|-----------------|
C|----------------|-----------------|
G|-\5--3-5-7-5-3--|-\5-3-5-7-5-3----|
C|----------------|-----------------|

G|---------------|------------------|
C|---------------|------------------|
G|-\5-3-5-7-5-3--|-\5-0-3-5-7-5-3---|
C|---------------|------------------|

G|----------------|-----------------|
C|----------------|-----------------|
G|-\5--3-5-7-5-3--|-\5-3-5-7-5-3----|
C|----------------|-----------------|

G|---------------|------------------|
C|---------------|------------------|
G|-\5-3-5-7-5-3--|-\5-0-3-5-7-5-3---|
C|---------------|------------------|

G|----------------|------------------|
C|----------------|------------------|
G|------3-5-7-5-3-|--------3-5-7-5-3-|
C|-0--0-----------|-0--0-------------|

G|----------------|------------------|
C|----------------|------------------|
G|------3-5-7-5-3-|-\5-0-3-5-7-5-3---|
C|-0--0-----------|------------------|

G|----------------|------------------|
C|----------------|------------------|
G|------3-5-7-5-3-|--------3-5-7-5-3-|
C|-0--0-----------|-0--0-------------|

G|----------------|------------------|
C|----------------|----5-5-3-3-3-2---|
G|------3-5-7-5-3-|-\5---------------|
C|-0--0-----------|------------------|


[Chorus]

G|--------------------------------|-------------------------------------------|
C|--------------------------------|--------5/-7-5-3-5-------------------------|
G|--------------------------------|-3-3-3-3-----------------------------------|
C|--8-8-8-8-8-8-8-4-5-5-5-5-5-5-5-|-------------------0-0-0-0-0-0-------------|

G|--------------------------------|-------------------------------------------|
C|--------------------------------|---------------------5--3-3-3-3-3----------|
G|--------------------------------|-\5-0-3-5-7-5-3-4-4-0----------------------|
C|--8-8-8-8-8-8-8-4-5-5-5-5-5-5-5-|-------------------------------------------|

G|-------------------------------------|--------------------------------------|
C|-------------------------------------|--------------------------------------|
G|-----------------1-1-1-1-1-1-1-1-1-1-|-5-5-5-5-5-5-6-7-7-7-7-7-1-1-1-1-1-1--|
C|-2-2-2-2-2-2-2-2---------------------|--------------------------------------|

[Verse]

G|----------------|-----------------|
C|----------------|-----------------|
G|-\5--3-5-7-5-3--|-\5-3-5-7-5-3----|
C|----------------|-----------------|

G|---------------|------------------|
C|---------------|------------------|
G|-\5-3-5-7-5-3--|-\5-0-3-5-7-5-3---|
C|---------------|------------------|

G|----------------|-----------------|
C|----------------|-----------------|
G|-\5--3-5-7-5-3--|-\5-3-5-7-5-3----|
C|----------------|-----------------|

G|---------------|------------------|
C|---------------|------------------|
G|-\5-3-5-7-5-3--|-\5-0-3-5-7-5-3---|
C|---------------|------------------|

G|----------------|------------------|
C|----------------|------------------|
G|------3-5-7-5-3-|--------3-5-7-5-3-|
C|-0--0-----------|-0--0-------------|

G|----------------|------------------|
C|----------------|------------------|
G|------3-5-7-5-3-|-\5-0-3-5-7-5-3---|
C|-0--0-----------|------------------|

G|----------------|------------------|
C|----------------|------------------|
G|------3-5-7-5-3-|--------3-5-7-5-3-|
C|-0--0-----------|-0--0-------------|

G|----------------|------------------|
C|----------------|----5-5-3-3-3-2---|
G|------3-5-7-5-3-|-\5---------------|
C|-0--0-----------|------------------|

[Chorus]

G|--------------------------------|-------------------------------------------|
C|--------------------------------|--------5/-7-5-3-5-------------------------|
G|--------------------------------|-3-3-3-3-----------------------------------|
C|--8-8-8-8-8-8-8-4-5-5-5-5-5-5-5-|-------------------0-0-0-0-0-0-------------|

G|--------------------------------|-------------------------------------------|
C|--------------------------------|---------------------5--3-3-3-3-3----------|
G|--------------------------------|-\5-0-3-5-7-5-3-4-4-0----------------------|
C|--8-8-8-8-8-8-8-4-5-5-5-5-5-5-5-|-------------------------------------------|

G|-------------------------------------|--------------------------------------|
C|-------------------------------------|--------------------------------------|
G|-----------------1-1-1-1-1-1-1-1-1-1-|-5-5-5-5-5-5-6-7-7-7-7-7-1-1-1-1-1-1--|
C|-2-2-2-2-2-2-2-2---------------------|--------------------------------------|


[Solo]

G|---------------------------10b--|---------------------------10b-----|
C|---10-10-10-10-10-10-10-10------|---10-10-10-10-10-10-10-10---------|
G|--------------------------------|-----------------------------------|
C|-0------------------------------|-0---------------------------------|

G|---------------------------10b--|-----------------------------------|
C|---10-10-10-10-10-10-10-10------|---10-10-10---10-10-10-------------|
G|--------------------------------|-----------------------------------|
C|-0------------------------------|-0----------0----------------------|

G|---------------------------10b--|---------------------------10b-----|
C|---10-10-10-10-10-10-10-10------|---10-10-10-10-10-10-10-10---------|
G|--------------------------------|-----------------------------------|
C|-0------------------------------|-0---------------------------------|

G|--------------------------------|-----------------------------------|
C|--10-10-10-10-10-10-10-10-10-10-|-10-10-10-10-10-10-10-10-10--------|
G|--------------------------------|-----------------------------------|
C|-0------------------------------|-----------------------------------|

[Outro]

G|-----------------------------|----------------------------------|
C|-8-8-8-7-7-5-5-3-3-3-2-0-0-0-|----------------------------------|
G|-----------------------------|-1-1-1-0-0---4-4-4-4-5-5-8-8-8-8--|
C|-----------------------------|-----------5----------------------|

G|---------------8-8-8-7-7-5-5-|-------------------------------|
C|-8-8-8-7-7-5-5---------------|-8-8-8-7-7-5-5-----------------|
G|-----------------------------|---------------4-4-5-5-5-5-8-8-|
C|-----------------------------|-------------------------------|

G|-----------------------------|------------------------------|
C|-----------------------------|-8-8-8-7-7-5-5----------------|
G|---------------8-8-8-7-7-5-5-|---------------4-4-4-5-8-8-8--|
C|-8-8-8-7-7-5-5---------------|------------------------------|

G|-----------------------------|--------------------------------|
C|-----------------------------|--------------------------------|
G|---------------8-8-8-7-7-5-5-|--------------4-4-4-5-5-5-8-8-8-|
C|-8-8-8-7-7-5-5---------------|-8-8-8-7-7-5-5------------------|

G|-----------------------------|---------------------------------|
C|--8-8-8-7-7-5----------------|---------------------------------|
G|---------------8-8-8-7-7-5-5-|---------------4-4-4-5-5-5-8-8-8-|
C|-----------------------------|8-8-8-7-7-5-5--------------------|

G|---------------8-8-8-7-7-5-5-|-------------------------------|
C|-8-8-8-7-7-5-5---------------|-8-8-8-7-7-5-5-----------------|
G|-----------------------------|---------------4-4-5-5-5-5-8-8-|
C|-----------------------------|-------------------------------|

G|-----------------------------|------------------------------|
C|-----------------------------|-8-8-8-7-7-5-5----------------|
G|---------------8-8-8-7-7-5-5-|---------------4-4-4-5-8-8-8--|
C|-8-8-8-7-7-5-5---------------|------------------------------|

G|-----------------------------|---------------------------------|
C|--8-8-8-7-7-5----------------|---------------------------------|
G|---------------8-8-8-7-7-5-5-|---------------------------------|
C|-----------------------------|-8-8-8-7-7-5-5-3-3-3-2-2-0-0-0---|


************************************

| b   Bend
| /   Slide up
| \   Slide down

            
            
Suggest correction
Creating personal tab
Creating personal tab
You can edit any tab online and save it as your Personal.

You can edit, replace or remove any tab part or add personal notes – all changes will be seen only by you.

Personal tabs can be accessed anytime from any device, even offline.
Learn more »
comments
print report bad tab
4 comments total. Showing first comments.
+1 reply
Guitarsed 10 Jun 17, 2017 05:00 AM

This tab is on point!

0 reply
BassmanBlazek 1,755 Jun 17, 2017 06:09 AM

Thanks man!

0 reply
patian9 33 Jun 17, 2017 11:36 AM

This tab is okay, I think mine is better cause I got the right tuning but this is still correct.

guest
You may want to rate the tab now too:
select rating
Wanna post a correction for this tab? Suggest correction