Oops, an error
Loading. Please wait.
We have an official I Only Lie When I Love You tab made by UG professional guitarists. Check out the tab »
×

I Only Lie When I Love You bass

version 1
version 1

Whole song

  • Entire tab of the studio version of the song.
  • This tab is based off of the studio version using:... Show more

Interactive

5,440 views 90 this week
2 commentsread comments
1 2 3 4 5
2 more votes to show rating
add to favorites
×
Save as Personal and add changes to this tab that will be seen only by you. Learn more ›
×
You can save this tab as Personal to edit and correct it or add notes. All changes will be seen only by you. Learn more »
launch autoscroll
font size
0
reset
guitar tuner
edit
Autoscroll
slow
fast
+/-
esc
set tempo
stop
Royal Blood
"I Only Lie When I Love You"

C# Tuning. Corrections welcome!


[Verse]

E |----------------|----------------|----------------|----------------|
B |----------------|----------------|----------------|----------------|
F#|7-----------5---|----------------|7-----------5---|----------------|
C#|--0---0-3/5---0-|----------------|--0---0-3/5---0-|------------12\-|
                                                                        x2
E |----------------|----------------|----------------|----------------|
B |----------------|----------------|----------------|----------------|
F#|----------------|----------------|7-----------5---|----------------|
C#|3---3---3---3---|--7-7-7-7-7-7-7-|--0---0-3/5---0-|----------------|

E |----------------|----------------|----------------|----------------|
B |----------------|----------------|----------------|----------------|
F#|7-----------5---|----------------|7-----------5---|----------------|
C#|--0---0-3/5---0-|----------------|--0---0-3/5---0-|------------12\-|

E |----------------|----------------|----------------|----------------|
B |----------------|----------------|----------------|----------------|
F#|----------------|----------------|7-----------5---|----------------|
C#|3---3---3---3---|--7-7-7-7-7-7-7-|--0---0-3/5---0-|--------------5-|

[Chorus]

E |----------------|----------------|----------------|----------------|
B |----------------|----------------|----------------|----------------|
F#|----------------|-------------10b|--------------7~|----------------|
C#|--5---3-5/6---5\|----------------|--0---0-3/5-----|--------------5-|

E |----------------|----------------|--7-------------|----------------|
B |----------------|----------7-6-5-|----------------|----------------|
F#|----------------|----------------|------7b8r7b8-7\|----------------|
C#|--5---3-5/6---5\|----------------|----------------|--------------5-|

E |----------------|----------------|----------------|----------------|
B |----------------|----------------|----------------|----------------|
F#|----------------|-------------10b|--------------7~|----------------|
C#|--5---3-5/6---5\|----------------|--0---0-3/5-----|--------------5-|

E |----------------|----------------|----------------|----------------|
B |----------------|----------------|----------------|----------------|
F#|----------------|----------------|--------------5-|--5---6---6-6-6-|
C#|--5---3-5/6---5\|----------5-6-7-|--7---8---8-----|----------------|

[Verse]

E |----------------|----------------|----------------|----------------|
B |----------------|----------------|----------------|----------------|
F#|7-----------5---|----------------|7-----------5---|----------------|
C#|--0---0-3/5---0-|----------------|--0---0-3/5---0-|------------12\-|
                                                                        x2
E |----------------|----------------|----------------|----------------|
B |----------------|----------------|----------------|----------------|
F#|----------------|----------------|7-----------5---|----------------|
C#|3---3---3---3---|--7-7-7-7-7-7-7-|--0---0-3/5---0-|----------------|

E |----------------|----------------|----------------|----------------|
B |----------------|----------------|----------------|----------------|
F#|7-----------5---|----------------|7-----------5---|----------------|
C#|--0---0-3/5---0-|----------------|--0---0-3/5---0-|------------12\-|

E |----------------|----------------|----------------|----------------|
B |----------------|----------------|----------------|----------------|
F#|----------------|----------------|7-----------5---|----------------|
C#|3---3---3---3---|--7-7-7-7-7-7-7-|--0---0-3/5---0-|--------------5-|

[Chorus]

E |----------------|----------------|----------------|----------------|
B |----------------|----------------|----------------|----------------|
F#|----------------|-------------10b|--------------7\|----------------|
C#|--5---3-5/6---5\|----------------|--0---0-3/5-----|--------------5-|

E |----------------|----------------|--7-------------|----------------|
B |----------------|----------7-6-5-|----------------|----------------|
F#|----------------|----------------|------7b8r7b8-7\|----------------|
C#|--5---3-5/6---5\|----------------|----------------|--------------5-|

E |----------------|----------------|----------------|----------------|
B |----------------|----------------|----------------|----------------|
F#|----------------|-------------10b|--------------7-|--6---5---------|
C#|--5---3-5/6---5\|----------------|--0---0-3-5-----|----------7-6-5-|

E |----------------|----------------|----------------|----------------|
B |----------------|----------------|----------------|----------------|
F#|--------------7\|----------------|--------------5-|--5---6----6----|
C#|--5---3-5/6-----|----------5-6-7-|--7---8---8-----|--------------7-|

E |----------------|----------------|----------------|----------------|
B |----------------|----------------|----------------|----------------|
F#|--------------5-|--5---6---6-----|--------------6-|--6---9---9-9-9-|
C#|--7---8---8-----|--------------7-|--7---8---8-----|----------------|

[Outro] 
 
E |----------------|----------------|----------------|----------------|
B |----------------|----------------|----------------|----------------|
F#|7-----------5---|7-----------5-5-|------------5---|7-----------5---|
C#|--0---0-3/5---0-|--0---0-3/5-----|--0---0-3/5---0-|--0---0-3/5---0-|



************************************

| b   Bend
| r   Release
| /   Slide up
| \   Slide down
| ~   Vibrato

************************************

            
            
Suggest correction
Creating personal tab
Creating personal tab
You can edit any tab online and save it as your Personal.

You can edit, replace or remove any tab part or add personal notes – all changes will be seen only by you.

Personal tabs can be accessed anytime from any device, even offline.
Learn more »
Give kudos to tab author, rate the tab!
1 2 3 4 5
comments
print report bad tab
2 comments total.
0 reply
epicsandal 10 Jun 08, 2017 06:16 PM

Is it just the low E tuned to C# or is it all tuned down? i.e. C# F# B E

0 reply
BlueMatador 3,973 Jun 08, 2017 08:27 PM

All strings are tuned down three half steps.

guest
You may want to rate the tab now too:
select rating
Wanna post a correction for this tab? Suggest correction