Oops, an error
Loading. Please wait.
We have an official I Only Lie When I Love You tab made by UG professional guitarists. Check out the tab »
×

I Only Lie When I Love You bass

version 3
version 3

Whole song

  • Entire tab of the studio version of the song.
  • This tab is based off of the studio version using:... Show more

Interactive

1,309 views 12 this week
no commentswrite comment
1 2 3 4 5
x 5
add to favorites
×
Save as Personal and add changes to this tab that will be seen only by you. Learn more ›
×
You can save this tab as Personal to edit and correct it or add notes. All changes will be seen only by you. Learn more »
launch autoscroll
font size
0
reset
guitar tuner
edit
Autoscroll
slow
fast
+/-
esc
set tempo
stop
About this tab version
This tab is based off of the studio version using: https://www.youtube.com/watch?v=BermIHe03zU and I watched his hands throughout the video to try to make is as accurate as possible. Was this info helpful? Yes No
[Intro]
E |--------------------------|---------------------------|
B |--------------------------|---------------------------|
F#|--7-----------------5-----|---7-----------------5-----|
C#|-----0-----0--3--5-----0--|------0-----0--3--5-----0--|

E |-------------------|----------------------------|---------------------------|
B |-------------------|----------------------------|---------------------------|
F#|-------------------|----5--5--5--5--5--5--5--5--|---7-----------------5-----|
C#|--12\--3--3--3--3--|----------------------------|------0-----0--3--5-----0--|

[Verse 1]
E |--------------------------|---------------------------|
B |--------------------------|---------------------------|
F#|--7-----------------5-----|---7-----------------5-----|
C#|-----0-----0--3--5-----0--|------0-----0--3--5-----0--|

E |-------------------|----------------------------|---------------------------|
B |-------------------|----------------------------|---------------------------|
F#|-------------------|----5--5--5--5--5--5--5--5--|---7-----------------5-----|
C#|--12\--3--3--3--3--|----------------------------|------0-----0--3--5-----0--|

[Chorus]
E |--------------------------|---------------------------|
B |--------------------------|---------------------------|
F#|--7-----------------5-----|---7-----------------5-----|
C#|-----0-----0--3--5-----0--|------0-----0--3--5-----0--|

E |-------------------|----------------------------|---------------------------|
B |-------------------|----------------------------|---------------------------|
F#|-------------------|----5--5--5--5--5--5--5--5--|---7-----------------5-----|
C#|--12/--3--3--3--3--|----------------------------|------0-----0--3--5-----0--|

E |--------------------------|-------------------------------|
B |--------------------------|-------------------------------|
F#|--------------------------|---10hb--------------------7\--|
C#|--5--5-----3--5/6-----5\--|---------0-----0--3--5---------|

E |--------------------------|--------------------------------------|
B |--------------------------|--------------------------------------|
F#|--------------------------|---12--12--10-------------------------|
C#|--5--5-----3--5/6-----5\--|---------------10-----10b12r10b12--0--|

E |--------------------------|-------------------------------|
B |--------------------------|-------------------------------|
F#|--------------------------|---10hb--------------------7\--|
C#|--5--5-----3--5/6-----5\--|---------0-----0--3--5---------|

E |--------------------------|--------------------------------------------------|
B |--------------------------|--------------------------------------------------|
F#|--------------------------|--------------------------------------------------|
C#|--5--5-----3--5/6-----5\--|---5--5--5---7--7---8--8---10--10---11--11-11-11--|

[Verse 2]
E |----------------------------|---------------------------|
B |----------------------------|---------------------------|
F#|----------------------5-----|---7-----------------5-----|
C#|--12---0-----0--3--5-----0--|------0-----0--3--5-----0--|

E |-------------------|----------------------------|
B |-------------------|----------------------------|
F#|-------------------|----5--5--5--5--5--5--5--5--|
C#|--12/--3--3--3--3--|----------------------------|

E |--------------------------|---------------------------|
B |--------------------------|---------------------------|
F#|--7-----------------5-----|---7-----------------5-----|
C#|-----0-----0--3--5-----0--|------0-----0--3--5-----0--|

E |-------------------|----------------------------|---------------------------|
B |-------------------|----------------------------|---------------------------|
F#|-------------------|----5--5--5--5--5--5--5--5--|---7-----------------5-----|
C#|--12/--3--3--3--3--|----------------------------|------0-----0--3--5-----0--|

[Chorus]
E |--------------------------|---------------------------|
B |--------------------------|---------------------------|
F#|--7-----------------5-----|---7-----------------5-----|
C#|-----0-----0--3--5-----0--|------0-----0--3--5-----0--|

E |-------------------|----------------------------|---------------------------|
B |-------------------|----------------------------|---------------------------|
F#|-------------------|----5--5--5--5--5--5--5--5--|---7-----------------5-----|
C#|--12/--3--3--3--3--|----------------------------|------0-----0--3--5-----0--|

E |--------------------------|-------------------------------|
B |--------------------------|-------------------------------|
F#|--------------------------|---10hb--------------------7\--|
C#|--5--5-----3--5/6-----5\--|---------0-----0--3--5---------|

E |--------------------------|--------------------------------------|
B |--------------------------|--------------------------------------|
F#|--------------------------|---12--12--10-------------------------|
C#|--5--5-----3--5/6-----5\--|---------------10-----10b12r10b12--0--|

E |--------------------------|------------------------------------------|
B |--------------------------|------------------------------------------|
F#|--------------------------|---10hb--------------------7--6--5--------|
C#|--5--5-----3--5/6-----5\--|---------0-----0--3--5--------------7--6--|

E |-----------------------------|--------------------------------------------|
B |-----------------------------|--------------------------------------------|
F#|----------------------12/----|--------------------------------------------|
C#|--5--5-----3--5/6------------|---5--5--5---7--7---8--8---10--10---11--11--|

E |---------------------------------|--------------------------------------------|
B |---------------------------------|--------------------------------------------|
F#|---------------------------------|--------------------------------------------|
C#|--7--7---8--8---10--10---11--11--|--7--7---8--8---11--11--14-14-14-14-14-12/--|

[Outro]
E |--------------------|------------------------------|-----------------------|
B |--------------------|------------------------------|-----------------------|
F#|--------------5--6--|--7-----------------5--7~-----|-----------5--7--7-----|
C#|--0--0--3--5--------|-----0-----0--3--5---------0--|--0--3--5-----------0--|

E |-----------------|
B |-----------------|
F#|-----------5-----|
C#|--0--3--5-----0--|


****************************

| \  Slide Down
| /  Slide Up
| b  Bend
| r  Release
| hb Half Bend
| ~  Vibrato

****************************

            
            
Suggest correction
Creating personal tab
Creating personal tab
You can edit any tab online and save it as your Personal.

You can edit, replace or remove any tab part or add personal notes – all changes will be seen only by you.

Personal tabs can be accessed anytime from any device, even offline.
Learn more »
comments
print report bad tab
guest
You may want to rate the tab now too:
select rating
Wanna post a correction for this tab? Suggest correction