Oops, an error
Loading. Please wait.
We have an official Out Of The Black tab made by UG professional guitarists. Check out the tab »
×
7,298 views 24 this week
4 commentsread comments
1 2 3 4 5
x 4
add to favorites
×
Save as Personal and add changes to this tab that will be seen only by you. Learn more ›
×
You can save this tab as Personal to edit and correct it or add notes. All changes will be seen only by you. Learn more »
launch autoscroll
font size
0
reset
guitar tuner
backing track
0:00
0:00
edit
Autoscroll
slow
fast
+/-
esc
set tempo
stop
Author
Difficulty
intermediate
Tuning: EDAG

[Intro]
(If you listen to the track you'll be able to work the rhythm of this riff out. 1st time round play 
the notes short and then for the repeat let them ring out)
G|------------------------------------------------------------------------------------------------------|
D|----3-3-3-3-3-3----3--------3-3-3-3-3-3---3-3-3-3------3-3-3-3-3-3----3----------3-3-3-3-3-3---3-3-3-3|
A|5---------------5----5--5---------------5---------5----------------5----5---5----------------5--------|
E|------------------------------------------------------------------------------------------------------|

G|------------------------------------------------------------------------------------------------------|
D|----3-3-3-3-3-3----3--------3-3-3-3-3-3---3-3-3-3------3-3-3-3-3-3----3----------3-3-3-3-3-3---3-3-3-3|
A|5---------------5----5--5---------------5---------5----------------5----5---5----------------5--------|
E|------------------------------------------------------------------------------------------------------|

G|---------|
D|--3-3-3-3|
A|5--------|
E|---------|

[Verse]
G|---------------------------------------------------------------|
D|----------------7-7-7-7-7-7-7-7-5-5-5-5-5-5-5-5----------------|
A|5-5-5-5-5-5-5-5---------------------------------8-8-8-8-8-8-8-8|
E|---------------------------------------------------------------|

G|---------------------------------------------------------------|
D|----------------7-7-7-7-7-7-7-7-5-5-5-5-5-5-5-5----------------|
A|5-5-5-5-5-5-5-5---------------------------------8-8-8-8-8-8-8-8|
E|---------------------------------------------------------------|

G|---------------------------------------------------------------|
D|----------------7-7-7-7-7-7-7-7-8-8-8-8-8-8-8-8----------------|
A|5-5-5-5-5-5-5-5---------------------------------7-7-7-7-7-7-7-7|
E|---------------------------------------------------------------|

[Chorus]
G|---------7-7-7----------7-7-7---------7-7-7-7---------6-6-6-6|
D|-------------------------------------------------------------|
A|5-5-5-5--------5-5-5-5--------8-8-8-8---------7-7-7-7--------|
E|-------------------------------------------------------------|

G|---------7-7-7----------7-7-7---------7-7-7-7---------6-6-6-6|
D|-------------------------------------------------------------|
A|5-5-5-5--------5-5-5-5--------8-8-8-8---------7-7-7-7--------|
E|-------------------------------------------------------------|

G|---------7-7-7----------7-7-7---------7-7-7-7---------6-6-6-6|
D|-------------------------------------------------------------|
A|5-5-5-5--------5-5-5-5--------8-8-8-8---------7-7-7-7--------|
E|-------------------------------------------------------------|

G|---------7-7-7----------7-7-7---------7-7-7-7---------6-6-6-6|
D|-------------------------------------------------------------|
A|5-5-5-5--------5-5-5-5--------8-8-8-8---------7-7-7-7--------|
E|-------------------------------------------------------------|

[Verse] 
(variation) 
G|----------------------------------------------------------------9b|
D|----------------7-7-7-7-7-7-7-7-8-8-8-8-8-8-8-8-------------------|
A|5-5-5-5-5-5-5-5---------------------------------7-7-7-7-7-7-7-7---|
E|------------------------------------------------------------------|

[Verse 2]
G|---------------------------------------------------------------|
D|----------------7-7-7-7-7-7-7-7-5-5-5-5-5-5-5-5----------------|
A|5-5-5-5-5-5-5-5---------------------------------8-8-8-8-8-8-8-8|
E|---------------------------------------------------------------|

G|---------------------------------------------------------------|
D|----------------7-7-7-7-7-7-7-7-5-5-5-5-5-5-5-5----------------|
A|5-5-5-5-5-5-5-5---------------------------------8-8-8-8-8-8-8-8|
E|---------------------------------------------------------------|

G|---------------------------------------------------------------|
D|----------------7-7-7-7-7-7-7-7-5-5-5-5-5-5-5-5----------------|
A|5-5-5-5-5-5-5-5---------------------------------8-8-8-8-8-8-8-8|
E|---------------------------------------------------------------|

G|---------------------------------------------------------------|
D|----------------7-7-7-7-7-7-7-7-8-8-8-8-8-8-8-8----------------|
A|5-5-5-5-5-5-5-5---------------------------------7-7-7-7-7-7-7-7|
E|---------------------------------------------------------------|

[Bridge Riff]
G|--------7-7-10-10---------9-9-12-12--------7-7-10-10---------9-9-12-12|
D|----------------------------------------------------------------------|
A|8-8-8-8-----------7-7-7-7----------8-8-8-8-----------7-7-7-7----------|
E|----------------------------------------------------------------------|

[Chorus 2]
G|---------7-7-7----------7-7-7---------7-7-7-7---------6-6-6-6|
D|-------------------------------------------------------------|
A|5-5-5-5--------5-5-5-5--------8-8-8-8---------7-7-7-7--------|
E|-------------------------------------------------------------|

G|---------7-7-7----------7-7-7---------7-7-7-7---------6-6-6-6|
D|-------------------------------------------------------------|
A|5-5-5-5--------5-5-5-5--------8-8-8-8---------7-7-7-7--------|
E|-------------------------------------------------------------|

G|---------7-7-7----------7-7-7---------7-7-7-7---------6-6-6-6|
D|-------------------------------------------------------------|
A|5-5-5-5--------5-5-5-5--------8-8-8-8---------7-7-7-7--------|
E|-------------------------------------------------------------|

G|---------7-7-7----------7-7-7---------7-7-7-7---------6-6-6-6|
D|-------------------------------------------------------------|
A|5-5-5-5--------5-5-5-5--------8-8-8-8---------7-7-7-7--------|
E|-------------------------------------------------------------|

[Instrumental]
G|------------------------------------------------------------------------------------------------------|
D|----3-3-3-3-3-3----3--------3-3-3-3-3-3---3-3-3-3------3-3-3-3-3-3----3----------3-3-3-3-3-3---3-3-3-3|
A|5---------------5----5--5---------------5---------5----------------5----5---5----------------5--------|
E|------------------------------------------------------------------------------------------------------|

G|------------------------------------------------------------------------------------------------------|
D|----3-3-3-3-3-3----3--------3-3-3-3-3-3---3-3-3-3------3-3-3-3-3-3----3----------3-3-3-3-3-3---3-3-3-3|
A|5---------------5----5--5---------------5---------5----------------5----5---5----------------5--------|
E|------------------------------------------------------------------------------------------------------|

[Bridge Riff] 
(variation)
G|--------7-7-10-10---------9-9-12-12--------7-7-10-10---------14-12------|
D|-------------------------------------------------------------------15-14|
A|8-8-8-8-----------7-7-7-7----------8-8-8-8-----------7-7-7-7------------|
E|------------------------------------------------------------------------|

[Chorus 3]
(same notes, but different position to make the transition into the chorus easier)
G|-------------------------------------------------------------------------------------------|
D|-------------12-12-12-----------------------------------12-12-12-12-------------11-11-11-11|
A|-------------------------------------------------------------------------------------------|
E|10-10-10-10-----------10-10-10-10--10---------13-13-13-13-----------12-12-12-12------------|
          
G|------------------------------------------------------------------------------------------|
D|-------------12-12-12-------------19-16-14-------------12-12-12-12-------------11-11-11-11|
A|------------------------------------------------------------------------------------------|
E|10-10-10-10-----------10-10-10-10----------13-13-13-13-------------12-12-12-12------------|
            *there is a twiddly bit ^ here ^ which i haven't quite got-suggestions welcome! :)*

G|-------------------------------------------------------------------------------------------|
D|-------------12-12-12--------------12-12-12-------------12-12-12-12-------------11-11-11-11|
A|-------------------------------------------------------------------------------------------|
E|10-10-10-10-----------10-10-10-10-----------13-13-13-13-------------12-12-12-12------------|

G|-------------------------------------------------------------------------------------------|
D|-------------12-12-12--------------12-12-12-------------12-12-12-12-------------11-11-11-11|
A|-------------------------------------------------------------------------------------------|
E|10-10-10-10-----------10-10-10-10-----------13-13-13-13-------------12-12-12-12------------|

[Joining riff]
G|---------------------------------------------------------------|
D|8-8-8-8-8-8-8-8------------------------------------------------|
A|----------------7-7-7-7-7-7-7-7-5-5-5-5-5-5-5-5-8-8-8-8-8-8-8-8|
E|---------------------------------------------------------------|

G|-------------------------------------------------------------------------------|
D|8-8-8-8-8-8-8-8-----------------12-12-12-12-12-12-12-12-10-10-10-10-10-10-10-10|
A|----------------7-7-7-7-7-7-7-7------------------------------------------------|
E|-------------------------------------------------------------------------------|

G|---------------------------------------------------------------|
D|8-8-8-8-8-8-8-8------------------------------------------------|
A|----------------7-7-7-7-7-7-7-7-5-5-5-5-5-5-5-5-8-8-8-8-8-8-8-8|
E|---------------------------------------------------------------|

G|-------------------------------|
D|8-8-8-8-8-8-8-8----------------|
A|----------------7-7-7-7-7-7-7-7|
E|-------------------------------|

[Final part]
G|7-7---------------------10-10----------------------------------------------|
D|--------7-7-----8-8-----------11-11-------12-12-----------11-11-12-12------|
A|----8-8-----5-5-----8-8-------------10-10-------8-8------------------------|
E|----------------------------------------------------12-12-------------10-10|

G|7-7---------------------10-10----------------------------------------------|
D|--------7-7-----8-8-----------11-11-------12-12-----------11-11-12-12------|
A|----8-8-----5-5-----8-8-------------10-10-------8-8------------------------|
E|----------------------------------------------------12-12-------------10-10|

G|7-7---------------------10-10----------------------------------------------|
D|--------7-7-----8-8-----------11-11-------12-12-----------11-11-12-12------|
A|----8-8-----5-5-----8-8-------------10-10-------8-8------------------------|
E|----------------------------------------------------12-12-------------10-10|

G|7-7---------------------10-10----------------------------------------------|
D|--------7-7-----8-8-----------11-11-------12-12-----------11-11-12-12-12-12|
A|----8-8-----5-5-----8-8-------------10-10-------8-8------------------------|
E|----------------------------------------------------12-12------------------|

G|----------------------------------------------------------------------------------------------10-10-10-10|
D|------12-12-----------11-11-12-12-------------12-12-----12-12-------12-12--------------------------------|
A|10-10-------8-8-------------------------10-10-------8-8-------10-10-------10-8-10-8-10-8-10-8------------|
E|----------------12-12-------------10-10------------------------------------------------------------------|

G|----------------------|
D|----------------------|
A|---8-8-8-8-8-8----8---|
E|10-------------10---10|


************************************

| b  Bend

************************************

            
            
Suggest correction
Creating personal tab
Creating personal tab
You can edit any tab online and save it as your Personal.

You can edit, replace or remove any tab part or add personal notes – all changes will be seen only by you.

Personal tabs can be accessed anytime from any device, even offline.
Learn more »
comments
print report bad tab
4 comments total. Showing first comments.
0 reply
rgutierrezall 10 Apr 23, 2016 02:50 PM

When start the final part, I think they are 16 pairs of notes, please correct that because I love the song thx

0 reply
rgutierrezall 10 Apr 23, 2016 02:51 PM

When start the final part, I think they are 16 pairs of notes, please correct that because I love the song thx

0 reply
Jernimo 95 Oct 13, 2016 10:02 AM

I think its
G|7-7---------------------10-10----------------------------------------------------|
D|--------7-7-----8-8-----------11-11-------12-12-----------------11-11-12-12------|
A|----8-8-----5-5-----8-8-------------10-10-------8-8-10-10------------------------|
E|----------------------------------------------------------12-12-------------10-10|

guest
You may want to rate the tab now too:
select rating
Wanna post a correction for this tab? Suggest correction