Oops, an error
Loading. Please wait.
We have an official Out Of The Black tab made by UG professional guitarists. Check out the tab »
×

Out Of The Black tab

48,616 views 261 this week
8 commentsread comments
1 2 3 4 5
x 66
add to favorites
×
Save as Personal and add changes to this tab that will be seen only by you. Learn more ›
×
You can save this tab as Personal to edit and correct it or add notes. All changes will be seen only by you. Learn more »
launch autoscroll
font size
0
reset
how to read this tab
guitar tuner
backing track
0:00
0:00
edit
Autoscroll
slow
fast
+/-
esc
set tempo
stop
Out of the Black – Royal Blood

Tabbed by: JDS

Tuning: Drop D - DADGBe

Tab arranged for guitar not bass. Yes I know the band does not use a guitar, but I don't play bass, 
and wanted to be able to play the song on guitar, and most of it is not much different.


[Intro riff]

E|--------------------------------------------------------------------|
B|---x2 palm mute--then x2 let ring-----------------------------------|
G|--------------------------------------------------------------------|
D|--------------------------------------------------------------------|
A|--------------------------------------------------------------------|
D|-0---15-15-15-15-15-15-0-15-0---0---15-15-15-15-15-15-0-15-15-15-15-| 

E|----------------|
B|----------------|
G|----------------|
D|----------------|
A|----------------|
D|-0-15-15-15-15--|


[First Verse riff] 

(pm):
E|-----------------------------------------------------------------|
B|-----------------------------------------------------------------|
G|-----------------------------------------------------------------|
D|-----------------------------------------------------------------|
A|-0-0-0-0-0-0-0-0-7-7-7-7-7-7-7-7-5-5-5-5-5-5-5-5-3-3-3-3-3-3-3-3-|
D|-0-0-0-0-0-0-0-0-7-7-7-7-7-7-7-7-5-5-5-5-5-5-5-5-3-3-3-3-3-3-3-3-|  (x2)

E|-----------------------------------------------------------------|
B|-----------------------------------------------------------------|
G|-----------------------------------------------------------------|
D|-----------------------------------------------------------------|
A|-0-0-0-0-0-0-0-0-7-7-7-7-7-7-7-7-8-8-8-8-8-8-8-8-2-2-2-2-2-2-2-2-|
D|-0-0-0-0-0-0-0-0-7-7-7-7-7-7-7-7-8-8-8-8-8-8-8-8-2-2-2-2-2-2-2-2-|


[Chorus riff]

E|-----------------------------------------------------------------|
B|---------6-6-6---------6-6-6-------------------------------------|
G|---------7-7-7---------7-7-7-------------------------------------|
D|-----------------------------------------------------------------|
A|-0-0-0-0-------0-0-0-0---------------5-5-5-5---------4-4-4-4-----|
D|-0-0-0-0-------0-0-0-0-------3-3-3-3---------2-2-2-2-------------|  (x4)


E|---------------------------------------------------------------------|
B|---------------------------------------------------------------------|
G|-palm mute-------------------------------------------------------1b2-|
D|---------------------------------------------------------------------|
A|-0-0-0-0-0-0-0-0-7-7-7-7-7-7-7-7-8-8-8-8-8-8-8-8-2-2-2-2-2-2-2-2-----|
D|-0-0-0-0-0-0-0-0-7-7-7-7-7-7-7-7-8-8-8-8-8-8-8-8-2-2-2-2-2-2-2-2-----|


[Second Verse riff] 

(pm):
E|-----------------------------------------------------------------|
B|-----------------------------------------------------------------|
G|-----------------------------------------------------------------|
D|-----------------------------------------------------------------|
A|-0-0-0-0-0-0-0-0-7-7-7-7-7-7-7-7-5-5-5-5-5-5-5-5-3-3-3-3-3-3-3-3-|
D|-0-0-0-0-0-0-0-0-7-7-7-7-7-7-7-7-5-5-5-5-5-5-5-5-3-3-3-3-3-3-3-3-|  (x3)


E|-----------------------------------------------------------------|
B|-----------------------------------------------------------------|
G|-----------------------------------------------------------------|
D|-----------------------------------------------------------------|
A|-0-0-0-0-0-0-0-0-7-7-7-7-7-7-7-7-8-8-8-8-8-8-8-8-2-2-2-2-2-2-2-2-|
D|-0-0-0-0-0-0-0-0-7-7-7-7-7-7-7-7-8-8-8-8-8-8-8-8-2-2-2-2-2-2-2-2-|


E|---------------------------------|
B|---------------------------------|
G|---------------------------------|
D|-------------3-3-------------5-5-|
A|---------5-5-------------4-4-----|
D|-3-3-3-3---------2-2-2-2---------|  (x2)


Play Chorus riff


Intro riff repeat (except for very last phrase):

E|--------------------------------------------------------------------|
B|---x2 palm mute--then x2 let ring-----------------------------------|
G|--------------------------------------------------------------------|
D|--------------------------------------------------------------------|
A|--------------------------------------------------------------------|
D|-0---15-15-15-15-15-15-0-15-0---0---15-15-15-15-15-15-0-15-15-15-15-| 


E|--------------------------------------------------------------------|
B|--------------------------------------------------------------------|
G|----------------------------------------------------------2-0-------|
D|-------------3-3-------------5-5-------------3-3--------------3-2---|
A|---------5-5-------------4-4-------------5-5------------------------|
D|-3-3-3-3---------2-2-2-2---------3-3-3-3---------2-2-2-2------------|


Play Chorus riff


E|-----------------------------------------------------------------|
B|-----------------------------------------------------------------|
G|-----------------------------------------------------------------|
D|-----------------------------------------------------------------|
A|-8-8-8-8-8-8-8-8-2-2-2-2-2-2-2-2-0-0-0-0-0-0-0-0-3-3-3-3-3-3-3-3-|
D|-8-8-8-8-8-8-8-8-2-2-2-2-2-2-2-2-0-0-0-0-0-0-0-0-3-3-3-3-3-3-3-3-|


E|---------------------------------------------------------------------------------|
B|---------------------------------------------------------------------------------|
G|---------------------------------------------------------------------------------|
D|---------------------------------------------------------------------------------|
A|-8-8-8-8-8-8-8-8-2-2-2-2-2-2-2-2-12-12-12-12-12-12-12-12-10-10-10-10-10-10-10-10-|
D|-8-8-8-8-8-8-8-8-2-2-2-2-2-2-2-2-12-12-12-12-12-12-12-12-10-10-10-10-10-10-10-10-|


E|-----------------------------------------------------------------|
B|-----------------------------------------------------------------|
G|-----------------------------------------------------------------|
D|-----------------------------------------------------------------|
A|-8-8-8-8-8-8-8-8-2-2-2-2-2-2-2-2-0-0-0-0-0-0-0-0-3-3-3-3-3-3-3-3-|
D|-8-8-8-8-8-8-8-8-2-2-2-2-2-2-2-2-0-0-0-0-0-0-0-0-3-3-3-3-3-3-3-3-|


E|---------------------------------|
B|---------------------------------|
G|---------------------------------|
D|---------------------------------|
A|-8-8-8-8-8-8-8-8-2-2-2-2-2-2-2-2-|
D|-8-8-8-8-8-8-8-8-2-2-2-2-2-2-2-2-|


[Final riff] (play this part once with no drums, then twice more with drums etc)

E|-----------------------------------------------------------------|
B|-----------------------------------------------------------------|
G|-----------------------------------------------------------------|
D|-------------------------3-3-------------------------------------|
A|-5-5-----0-0-----1-1---------4-4-----5-5-----5-5-----4-4-5-5-----|
D|-----3-3-----0-0-----3-3---------5-5-----3-3-----2-2---------0-0-| (x3 total)


E|-----------------------------------------------------------------|
B|-----------------------------------------------------------------|
G|-----------------------------------------------------------------|
D|-------------------------3-3-------------------------------------|
A|-5-5-----0-0-----1-1---------4-4-----5-5-----5-5-----4-4-5-5-5-5-|
D|-----3-3-----0-0-----3-3---------5-5-----3-3-----2-2-------------|

E|---------------------------------|
B|---------------------------------|
G|---------------------------------|
D|---------------------------------|
A|-----5-5-----5-5-----4-4-5-5-----|
D|-5-5-----3-3-----2-2---------0-0-|


E|----------------------------------------------------------------------|
B|----------------------------------------------------------------------|
G|----------------------------------------------------------------------|
D|----------------------------------------------------------------------|
A|-----5-5-----5-5----5-5-----5-5---------------------------------------|
D|-5-5-----3-3-----5-5----3-3------5-3-5-3-5-3-5-3-5-3-5-3-/15-15-15-15-|

E|----------------------------|
B|----------------------------|
G|----------------------------|
D|----------------------------|
A|----------------------------|
D|-0--15-15-15-15-15-15-0-\15-|



************************************

| x  Dead note
| b  Bend
| /  Slide up
| \  Slide down

************************************

            
            
Suggest correction
Creating personal tab
Creating personal tab
You can edit any tab online and save it as your Personal.

You can edit, replace or remove any tab part or add personal notes – all changes will be seen only by you.

Personal tabs can be accessed anytime from any device, even offline.
Learn more »
comments
print report bad tab
8 comments total. Showing first comments.
+3 reply
wazu_492000 42 Jan 10, 2015 10:14 AM

awesome tab for an awesome song! Thanks so much for posting

+2 reply
Dallin_D 20 Feb 19, 2015 02:35 PM

Great conversion to guitar from the bass. Sounds spot on!

+2 reply
kirbsk 13 Jul 07, 2015 11:19 AM, edited at 03:20 pm

just a small thing: in the last chorus, play this in the second time on the riff

youll know what I mean if you listen to the song enough

\

guest
You may want to rate the tab now too:
select rating
Wanna post a correction for this tab? Suggest correction