Oops, an error
Loading. Please wait.

Where Are You Now tab

version 1
version 1

Whole song

Interactive

5,392 views 90 this week
1 commentread comment
1 2 3 4 5
x 5
add to favorites
×
Save as Personal and add changes to this tab that will be seen only by you. Learn more ›
×
You can save this tab as Personal to edit and correct it or add notes. All changes will be seen only by you. Learn more »
launch autoscroll
font size
0
reset
how to read this tab
guitar tuner
edit
Autoscroll
slow
fast
+/-
esc
set tempo
stop
Artist: Royal Blood
Song:   Where are you now? 

Standard tuning

Tabbed by Jasper Vellekoop

Also check my cover of this song:
https://www.youtube.com/watch?v=SpkOuj4_074 
--------------------------------------------------------------------------------
Awesome drum intro

[Verse]
e|--------------------------------------|----------------------------------------------------|
B|--------------------------------------|----------------------------------------------------|
G|--------------------------------------|----------------------------------------------------|
D|--------------------------------------|--------------------------------------------9-12----|
A|--------------------------------------|-------------------------------------------------10-|
E|-7/12-0-0-0-0-0--0-0-0-0-0--0-0-0-0-0-|-0-0-0-0-0--0-0-0-0-0--0-0-0-0-0--0-0-0-0-0---------|

e|------------------------------------|-----------------------------------------------------|
B|------------------------------------|-----------------------------------------------------|
G|------------------------------------|-----------------------------------------------------|
D|------------------------------------|--------------------------------------------9-12-----| x2
A|------------------------------------|-------------------------------------------------10--|
E|-0--0-0-0-0-0--0-0-0-0-0--0-0-0-0-0-|-0-0-0-0-0--0-0-0-0-0--0-0-0-0-0--0-0-0-0-0----------|

e|------------------------------------|--------------------------------------------------------|
B|------------------------------------|--------------------------------------------------------|
G|------------------------------------|--------------------------------------------------------|
D|------------------------------------|------------------------------------------------9-12----|
A|------------------------------------|-----------------------------------------------------10-|
E|-3--3-3-3-3-3--3-3-3-3-10--10-10-10-|-10-10-10-10-10-0--0-0-0-0-0--0-0-0-0-0-0-0-0-0---------|

e|------------------------------------|-----------------------------------------------------|
B|------------------------------------|-----------------------------------------------------|
G|------------------------------------|-----------------------------------------------------|
D|------------------------------------|---------------------------------------------9-12----| x2
A|------------------------------------|--------------------------------------------------10-|
E|-0--0-0-0-0-0--0-0-0-0-0--0-0-0-0-0-|-0-0-0-0-0--0-0-0-0-0--0-0-0-0-0--0-0-0-0-0----------|

e|------------------------------------|--------------------------------------------------------|
B|------------------------------------|--------------------------------------------------------|
G|------------------------------------|--------------------------------------------------------|
D|------------------------------------|------------------------------------------------9-12----|
A|------------------------------------|-----------------------------------------------------10-|
E|-3--3-3-3-3-3--3-3-3-3-10--10-10-10-|-10-10-10-10-10-0--0-0-0-0-0--0-0-0-0-0-0-0-0-0---------|

e|--------------------------------------------------------------|----------------------------------------|
B|--------------------------------------------------------------|----------------------------------------|
G|--------------------------------------------------------------|----------------------------------------|
D|--------------------------------------------------------------|----------------------------------------|
A|--------------------------------------------------------------|----------------------------------------|
E|---3---3-3-3-3-3---3-3-3-3-10---10-10-10-10-10---10-10-10-10--|----------------------------------------|


[Chorus]
e|-----------------------|------------------------|
B|-----------------------|------------------------|
G|-----------------------|------------------------|
D|-----------------------|-----------------2-5-2--|  x2
A|---------------6---6/7-|-------------2h5--------|
E|--0-3-0-3-5--5---5-----|--0-3-0-3-5-------------|


[Verse]
e|--------------------------------------|----------------------------------------------------|
B|--------------------------------------|----------------------------------------------------|
G|--------------------------------------|----------------------------------------------------|
D|--------------------------------------|--------------------------------------------9-12----|
A|--------------------------------------|-------------------------------------------------10-|
E|-7/12-0-0-0-0-0--0-0-0-0-0--0-0-0-0-0-|-0-0-0-0-0--0-0-0-0-0--0-0-0-0-0--0-0-0-0-0---------|

e|------------------------------------|-----------------------------------------------------|
B|------------------------------------|-----------------------------------------------------|
G|------------------------------------|-----------------------------------------------------|
D|------------------------------------|---------------------------------------------9-12----|
A|------------------------------------|--------------------------------------------------10-|
E|-0--0-0-0-0-0--0-0-0-0-0--0-0-0-0-0-|-0-0-0-0-0--0-0-0-0-0--0-0-0-0-0--0-0-0-0-0----------|

e|------------------------------------|--------------------------------------------------------|
B|------------------------------------|--------------------------------------------------------|
G|------------------------------------|--------------------------------------------------------|
D|------------------------------------|------------------------------------------------9-12----|
A|------------------------------------|-----------------------------------------------------10-|
E|-3--3-3-3-3-3--3-3-3-3-10--10-10-10-|-10-10-10-10-10-0--0-0-0-0-0--0-0-0-0-0-0-0-0-0---------|

e|-----------------------------|---------------------------------|
B|-----------------------------|---------------------------------|
G|-----------------------------|---------------------------------|
D|-----------------------------|---------------------------------|
A|-----------------------------|---------------------------------|
E|---3---3-3-3-3-3--3-3-8-9-10-|--10-10-10-10-10---10-10-10-10---|


[Chorus]
e|-----------------------|------------------------|
B|-----------------------|------------------------|
G|-----------------------|------------------------|
D|-----------------------|-----------------2-5-2--|  x2
A|---------------6---6/7-|-------------2h5--------|
E|--0-3-0-3-5--5---5-----|--0-3-0-3-5-------------|


[Bridge]
e|-----------------------------------|-----------------------------------|
B|-----------------------------------|-----------------------------------|
G|-----------------------------------|-----------------------------------|
D|-----------------------------------|-----------------------------------|  x3
A|-----------------------------------|-------------6----------------2----|
E|-8--8---8-8--7----5--5---5-5--3----|-7--7---7-7-------0--0---0-4-------|

The fourth time he plays this
e|-----------------------------------|-------------------------------------|
B|-----------------------------------|-------------------------------------|
G|-----------------------------------|-------------------------------------|
D|-----------------------------------|-------------------------------------|
A|-----------------------------------|-------------------------------------|
E|-8--8---8-8--7----5--5---5-5--3----|-7--7---7-7--7---7-7--7---7-7--7---7-|


After that, there is a kind of variation
e|------------------------------|---------------------------------------|
B|------------------------------|---------------------------------------|
G|------------------------------|---------------------------------------|
D|------------------------------|---------------------------------------|
A|------------------------------|-------------6--------------5/7--5-----|
E|-8--8---8-8--7---5-5-5-7p5-3--|--7---7--7-7---7----0---0-0------------|

e|---------------------------|-----------------------------------------------------|
B|---------------------------|---------------12-12-12-12-12-12-12-12-12-12-12-12---|
G|---------------------------|----------------x--x--x--x--x--x--x--x--x--x--x--x---|
D|---------------------------|----------------9--9--9--9--9--9--9--9--9--9--9--9---|
A|---------------------------|-----------------------------------------------------|
E|---8-8---8-8-7-5-5-5-7p5-3-|-7-7---7-7-7-7---------------------------------------|


During the bridge you hear some kind of lead guitar that goes like this
e|----------------------------------------------|-----------------------------------------------|
B|----------------------------------------------|-----------------------------------------------|
G|--12-12-12-12-12-12-12/14-14-14-14-14-14-14---|-14-14-14-14-14-14-14-13-13-13-13-13-13-13-13--|
D|---x--x--x--x--x--x--x--x--x--x--x--x--x--x---|--x--x--x--x--x--x--x--x--x--x--x--x--x--x--x--|
A|--10-10-10-10-10-10-10/12-12-12-12-12-12-12---|-12-12-12-12-12-12-12-11-11-11-11-11-11-11-11--|
E|----------------------------------------------|-----------------------------------------------|

e|----------------------------------------------|---------------------------------|
B|----------------------------------------------|---------------------------------|
G|--12-12-12-12-12-12-12-12-12-9-9-9-9-9-9-9-9--|--11-11-11-11-11-11-11-11-11-11--|
D|---x--x--x--x--x--x--x--x--x-x-x-x-x-x-x-x-x--|---x--x--x--x--x--x--x--x--x--x--|
A|--10-10-10-10-10-10-10-10-10-7-7-7-7-7-7-7-7--|---9--9--9--9--9--9--9--9--9--9--|
E|----------------------------------------------|---------------------------------|

e|-----------------------|-------------------------|
B|-----------------------|-------------------------|
G|--16-16-16-16-16-16-16-|-16-16-16-16-16-16-16-16-|
D|---x--x--x--x--x--x--x-|--x--x--x--x--x--x--x--x-|
A|--14-14-14-14-14-14-14-|-14-14-14-14-14-14-14-14-|
E|-----------------------|-------------------------|


[Outro / Chorus]
e|-----------------------|------------------------|
B|-----------------------|------------------------|
G|-----------------------|------------------------|
D|-----------------------|-----------------2-5-2--|
A|---------------6---6/7-|-------------2h5--------|
E|--0-3-0-3-5--5---5-----|--0-3-0-3-5-------------|

e|-----------------------|----------------------------|
B|-----------------------|----------------------------|
G|-----------------------|----------------------------|
D|-----------------------|---------5---6-7------2-5-2-|
A|---------------6---6/7-|----5/7----7-----2-5--------|
E|--0-3-0-3-5--5---5-----|----------------------------|

e|-------------------------------|----------------------------|
B|-------------------------------|----------------------------|
G|-------------------------------|----------------------------|
D|-------------------------------|-5h7/9p7-5---5--------------|
A|-------------------------------|-----------7---7-5h7p5------|
E|-----0---0-0-0-0-0-----0-0-0-0-|-----------------------7-0--|


==================================================================

Hammer on  = h
Pull off   = p
Slide      = /

==================================================================

            
            
Suggest correction
Creating personal tab
Creating personal tab
You can edit any tab online and save it as your Personal.

You can edit, replace or remove any tab part or add personal notes – all changes will be seen only by you.

Personal tabs can be accessed anytime from any device, even offline.
Learn more »
comments
print report bad tab
1 comment total.
0 reply
jasper.thomas 10 Jun 23, 2017 06:27 AM

oh hey cool name

guest
You may want to rate the tab now too:
select rating
Wanna post a correction for this tab? Suggest correction