Oops, an error
Loading. Please wait.

Here I Come There You Go tab

958 views 6 this week
no commentswrite comment
1 2 3 4 5
2 more votes to show rating
add to favorites
×
Save as Personal and add changes to this tab that will be seen only by you. Learn more ›
×
You can save this tab as Personal to edit and correct it or add notes. All changes will be seen only by you. Learn more »
launch autoscroll
font size
0
reset
how to read this tab
guitar tuner
edit
Autoscroll
slow
fast
+/-
esc
set tempo
stop
Author
[Intro]

   B5                
e|---------------------------------------------------------------------------|
B|---------------------------------------------------------------------------|
G|---------------------------------------------------------------------------|
D|-4-4-4-4-4-4-4-4---4-4-4-4-4-4-4-4---4-4-4-4-4-4-4-4---4-4-4-4-4-4-4-4-----|
A|-2-2-2-2-2-2-2-2---2-2-2-2-2-2-2-2---2-2-2-2-2-2-2-2---2-2-2-2-2-2-2-2-----|
E|---------------------------------------------------------------------------|
   1 + 2 + 3 + 4 +   1 + 2 + 3 + 4 +   1 + 2 + 3 + 4 +   1 + 2 + 3 + 4 +


[Verse]

Wait
I don't feel like waiting
I don't feel like waiting
Hesitating
Anymore

Say
Don't wanna hear you saying
Don't wanna hear you saying
You don't want me
Anymore

3x
Here I come (There you go)
Here I come now

So
Take it slow
Touch and go
Let it glow
Yeah, you know

Take
Go ahead and take me
Take my picture
Make me richer
Rock'n'roll


While this whole part you play following five times:

   B5                                  D5
e|---------------------------------------------------------------------------|
B|---------------------------------------------------------------------------|
G|---------------------------------------------------------------------------|
D|-4-4-4-4-4-4-4-4---4-4-4-4-4-4-4-4---7-7-7-7-7-7-7-7---7-7-7-7-7-7-7-7-----|
A|-2-2-2-2-2-2-2-2---2-2-2-2-2-2-2-2---5-5-5-5-5-5-5-5---5-5-5-5-5-5-5-5-----|
E|---------------------------------------------------------------------------|
   1 + 2 + 3 + 4 +   1 + 2 + 3 + 4 +   1 + 2 + 3 + 4 +   1 + 2 + 3 + 4 +

   E5                                  B5
e|---------------------------------------------------------------------------|
B|---------------------------------------------------------------------------|
G|---------------------------------------------------------------------------|
D|-9-9-9-9-9-9-9-9---9-9-9-9-9-9-9-9---4-4-4-4-4-4-4-4---4-4-4-4-4-4-4-4-----|
A|-7-7-7-7-7-7-7-7---7-7-7-7-7-7-7-7---2-2-2-2-2-2-2-2---2-2-2-2-2-2-2-2-----|
E|---------------------------------------------------------------------------|
   1 + 2 + 3 + 4 +   1 + 2 + 3 + 4 +   1 + 2 + 3 + 4 +   1 + 2 + 3 + 4 +

   
[Chorus 1]

6x Here I come (There you go) Here I come now

While Chorus-1 play this two times:

   B5                                  D5
e|---------------------------------------------------------------------------|
B|---------------------------------------------------------------------------|
G|---------------------------------------------------------------------------|
D|-4-4-4-4-4-4-4-4---4-4-4-4-4-4-4-4---7-7-7-7-7-7-7-7---7-7-7-7-7-7-7-7-----|
A|-2-2-2-2-2-2-2-2---2-2-2-2-2-2-2-2---5-5-5-5-5-5-5-5---5-5-5-5-5-5-5-5-----|
E|---------------------------------------------------------------------------|
   1 + 2 + 3 + 4 +   1 + 2 + 3 + 4 +   1 + 2 + 3 + 4 +   1 + 2 + 3 + 4 +

   E5                                 
e|-----------------------------------|
B|-----------------------------------|
G|-----------------------------------|
D|-9-9-9-9-9-9-9-9---9-9-9-9-9-9-9-9-|
A|-7-7-7-7-7-7-7-7---7-7-7-7-7-7-7-7-|
E|-----------------------------------|
   1 + 2 + 3 + 4 +   1 + 2 + 3 + 4 +   

   
[Solo]

Chords in the background: 2x B D E B

1. Part: Play this Solo seven times:

e|------------------------------------|
B|------------------------------------|
G|------------------------------------|
D|---------0-----0---2-4-2-4-2-0------|
A|-2---0-2-----2-----------------2----|
E|------------------------------------|
   1 + 2 + 3 + 4 +   1 + 2 + 3 + 4 +

2. Part: Then play the Solo a eighth time a little bit different:
   
e|------------------------------------|
B|------------------------------------|
G|------------------------------------|
D|---------0-----0---2-2-2-2-2-2-2-2--|
A|-2---0-2-----2----------------------|
E|------------------------------------|
   1 + 2 + 3 + 4 +   1 + 2 + 3 + 4 +
   

[Fill]
   
   B5
e|-----------------------------------|
B|-----------------------------------|
G|-----------------------------------|
D|-5---5---5---5-----5---5---5---5---|
A|-2---2---2---2-----2---2---2---2---|
E|-----------------------------------|
   1 + 2 + 3 + 4 +   1 + 2 + 3 + 4 +
   

[Chorus 2]

Hey!
Here I come! (There you go!)
I think it's time you let me know

What goes up and out
Here I come! (There you go!)
And you don't have to say no more
No

Here I come! (There you go!)
And I'm just about to throw myself
Off from this plato

Here I come! (There you go!)
I think it's time I let you go
And get on with the show


Play the following five times:

   B5                E5                F#5                 B5
e|---------------------------------------------------------------------------|
B|---------------------------------------------------------------------------|
G|-4-----------------------------------6-------------------4-----------------|
D|-2---2-4-5-4-2-0---4-----------------4---4-2-4-2-0-------4-----------------|
A|-------------------2---2-4-5-4-2-------------------4---2-------------------|
E|---------------------------------------------------------------------------|
   1 + 2 + 3 + 4 +   1 + 2 + 3 + 4 +   1 + 2 + 3 + 4 +   1 + 2 + 3 + 4 +
   
      B5                E5             F#5                
e|---------------------------------------------------------------------------|
B|---------------------------------------------------------------------------|
G|-4-----------------------------------6---6---6---6-4---6---6---------------|
D|-2---2-4-5-4-2-0---4-----------------4---4---4---4-2---4---4-2-4-0---------|
A|-------------------2---2-4-5-4-2-----------------------------------4-------|
E|---------------------------------------------------------------------------|
   1 + 2 + 3 + 4 +   1 + 2 + 3 + 4 +   1 + 2 + 3 + 4 +   1 + 2 + 3 + 4 +
   
and then (while the "woahhhhooo" part:

   B                                   F#                B
e|---------------------------------------------------------------------------|
B|---------------------------------------------------------------------------|
G|---------------------------------------------------------------------------|
D|-------------0-----------------0-----4---4---4-2-0-------------------------|
A|-2---2---2---------2---2---2-----------------------4---2---2---2---2-------|
E|---------------------------------------------------------------------------|
   1 + 2 + 3 + 4 +   1 + 2 + 3 + 4 +   1 + 2 + 3 + 4 +   1 + 2 + 3 + 4 +
   
   B                                   F#
e|---------------------------------------------------------------------------|
B|---------------------------------------------------------------------------|
G|---------------------------------------------------------------------------|
D|-------------0-------------------0---4---4---4-2-0-2---4---4---4-2-0-2-----|
A|-2---2---2---------2---2---2-----------------------------------------------|
E|---------------------------------------------------------------------------|
   1 + 2 + 3 + 4 +   1 + 2 + 3 + 4 +   1 + 2 + 3 + 4 +   1 + 2 + 3 + 4 +

this part slows down a little bit:

   F#
e|-------------------------------------------|
B|-------------------------------------------|
G|-------------------------------------------|
D|-4---4---4-2-0-2---4---4---4---------------|
A|-------------------------------------------|
E|-------------------------------------------|
   1 + 2 + 3 + 4 +   1 + 2 + 3 + 4 +  
   

[Solo 1]

Play the first part of the Solo 3 times


[Chorus 1]

            
            
Suggest correction
Creating personal tab
Creating personal tab
You can edit any tab online and save it as your Personal.

You can edit, replace or remove any tab part or add personal notes – all changes will be seen only by you.

Personal tabs can be accessed anytime from any device, even offline.
Learn more »
Give kudos to tab author, rate the tab!
1 2 3 4 5
comments
print report bad tab
guest
You may want to rate the tab now too:
select rating
Wanna post a correction for this tab? Suggest correction