Oops, an error
Loading. Please wait.

Wendys Trash Can tab

676 views 48 this week
no commentswrite comment
1 2 3 4 5
1 last vote to show rating
add to favorites
×
Save as Personal and add changes to this tab that will be seen only by you. Learn more ›
×
You can save this tab as Personal to edit and correct it or add notes. All changes will be seen only by you. Learn more »
launch autoscroll
font size
0
reset
how to read this tab
guitar tuner
edit
Autoscroll
slow
fast
+/-
esc
set tempo
stop
If I wrote down chords multiple times, they're played either 8, 16 or 32 times, sometimes the space just 
wasn't enough and I don't want to make the song seem more complicated than it actually is.
You can watch my cover of this song on here, maybe it helps: https://youtu.be/eAek5-9Ashs

[Intro]

D#|--------------------|
A#|--------------------|
F#|--------------------|
C#|--5-5-5-5-5-5-5-5---| x4
G#|--5-5-5-5-5-5-5-5---|
D#|--3-3-3-3-3-3-3-3---|

D#|---------------------------------------------------------------------------------------------------------|
A#|---------------------------------------------------------------------------------------------------------|
F#|---------------------------------------------------------------------------------------------------------|
C#|-5-5-5-5-5-5-5-5-5-5-5-5-5-5--9-9-9-9-9-9-9-9--10-10-10-10-10-10-10-10--5-5-5-5-5-5-5-5-5-5-5-5-5-5-5-5--|
G#|-5-5-5-5-5-5-5-5-5-5-5-5-5-5--9-9-9-9-9-9-9-9--10-10-10-10-10-10-10-10--5-5-5-5-5-5-5-5-5-5-5-5-5-5-5-5--|
D#|-3-3-3-3-3-3-3-3-3-3-3-3-3-3--7-7-7-7-7-7-7-7---8--8--8--8--8--8--8--8--3-3-3-3-3-3-3-3-3-3-3-3-3-3-3-3--|

x2

Guitar 1              "Oooooh....."
D#|-----------------|-------------------------------------------------------------------------------------|
A#|-----------------|-------------------------------------------------------------------------------------|
F#|-----------------|-------------------------------------------------------------------------------------|
C#|--5-5-5-5-5-5-5--|--9-9-9-9-9-9-9--10-10-10-10-10--5-5-5-5-5-5-5-5-5-5-5------------------7-7-7-7-7-7--|
G#|--5-5-5-5-5-5-5--|--9-9-9-9-9-9-9--10-10-10-10-10--5-5-5-5-5-5-5-5-5-5-5---2-2-2-2-2-2-2--7-7-7-7-7-7--|
D#|--3-3-3-3-3-3-3--|--7-7-7-7-7-7-7--8-8-8-8-8-8-8---3-3-3-3-3-3-3-3-3-3-3---0-0-0-0-0-0-0--5-5-5-5-5-5--|

Guitar 2
D#|------14--12--10----10------------| 
A#|--12-------------12----12---------| 
F#|----------------------------------| 
C#|----------------------------------| 
G#|----------------------------------| 
D#|----------------------------------|


[Verse]

D#|--------------------|
A#|--------------------|
F#|--------------------|
C#|--5-5-5-5-5-5-5-5---| x4
G#|--5-5-5-5-5-5-5-5---|
D#|--3-3-3-3-3-3-3-3---|

"I’ve lost track of all the cups...."
D#|---------------------------------------------------------------------------------------------------------|
A#|---------------------------------------------------------------------------------------------------------|
F#|---------------------------------------------------------------------------------------------------------|
C#|-5-5-5-5-5-5-5-5-5-5-5-5-5-5--9-9-9-9-9-9-9-9--10-10-10-10-10-10-10-10--5-5-5-5-5-5-5-5-5-5-5-5-5-5-5-5--|
G#|-5-5-5-5-5-5-5-5-5-5-5-5-5-5--9-9-9-9-9-9-9-9--10-10-10-10-10-10-10-10--5-5-5-5-5-5-5-5-5-5-5-5-5-5-5-5--|
D#|-3-3-3-3-3-3-3-3-3-3-3-3-3-3--7-7-7-7-7-7-7-7---8--8--8--8--8--8--8--8--3-3-3-3-3-3-3-3-3-3-3-3-3-3-3-3--|

x2


[Pre-Chorus]

Guitar 1
D#|---------------------------------------------------------------------------------------------------------|
A#|---------------------------------------------------------------------------------------------------------|
F#|---------------------------------------------------------------------------------------------------------|
C#|--9-9-9-9-9-9--10-10-10-10-10--5-5-5-5-5---------------7-7-7-7-7-7-7--5-5-5-5-5-5-5-5--x-x-x-x-x-x-x-x---|
G#|--9-9-9-9-9-9--10-10-10-10-10--5-5-5-5-5--2-2-2-2-2-2--7-7-7-7-7-7-7--5-5-5-5-5-5-5-5--x-x-x-x-x-x-x-x---|
D#|--7-7-7-7-7-7--8--8--8--8--8---3-3-3-3-3--0-0-0-0-0-0--5-5-5-5-5-5-7--3-3-3-3-3-3-3-3--x-x-x-x-x-x-x-x---|


D#|------14--12--10----10------------| 
A#|--12-------------12----12---------| 
F#|----------------------------------| 
C#|----------------------------------| 
G#|----------------------------------| 
D#|----------------------------------|

[Chorus]

"It's not the same..."
D#|----------------------------------------------------------------------------------------------------|
A#|----------------------------------------------------------------------------------------------------|
F#|-5-5-5-5-----------------5-5-5-5--------------------------------------------------------------------|
C#|-5-5-5-5--7-7-7-7-7-7-7--5-5-5-5--7-7-7-7-7-7-7-7----5-5-5-5-5-5-5-5--------------------------------| x2
G#|-3-3-3-3--7-7-7-7-7-7-7--3-3-3-3--7-7-7-7-7-7-7-7----5-5-5-5-5-5-5-5----2-2-2-2-2-2-2-2-2-----------|
D#|----------5-5-5-5-5-5-5-----------5-5-5-5-5-5-5-5----3-3-3-3-3-3-3-3--*-0-0-0-0-0-0-0-0-0-----------|

*second time: stop here and play the 355 chord instead

SHRED FOR MEEE

Guitar 1                                             Guitar 2
D#|--------------------------------------------------|--14-12-10----10-----14-12-10----10--| 
A#|--12------12------10-8-7----7/8--12---10—12/7--7--|-----------12---12-----------12------| 
F#|--14b16---14b16-----------------------------------|-------------------------------------|
C#|--------------------------------------------------|-------------------------------------| 
G#|--------------------------------------------------|-------------------------------------| 
D#|--------------------------------------------------|-------------------------------------|

Guitar 1                                             Guitar 2
D#|--------------------------------------------------|-14-12-10----10-----14-12-10--------| 
A#|--12------12------10-8-7----7/8--12---10—12/7--7--|----------12---12-----------12------| 
F#|--14b16---14b16-----------------------------------|------------------------------------|
C#|--------------------------------------------------|------------------------------------| 
G#|--------------------------------------------------|------------------------------------| 
D#|--------------------------------------------------|------------------------------------|


D#|--------------------------------------------------------------------| 
A#|--12-10-7--12-10-7--12-10-7--12-10-7------12-10-8-7-8-10-7~---------| 
F#|--------------------------------------------------------------------| 
C#|--------------------------------------------------------------------| 
G#|--------------------------------------------------------------------| 
D#|--------------------------------------------------------------------|

D#|------------------------------------------------------------| 
A#|--12-10-7-12-10-7---12-10-7-12-10-7-----------12b----20~----| 
F#|----------------------------------------------14b16---------| 
C#|------------------------------------------------------------| 
G#|------------------------------------------------------------| 
D#|------------------------------------------------------------|


[Verse]

"Two days away...."
D#|-------------------------|--------------------------------------------------|
A#|-------------------------|--------------------------------------------------|
F#|-------------------------|--------------------------------------------------|
C#|--5-5-5-5-5-5-5-5-----x4-|-5---9---10---5-5-5-5-5-5-5-5-5-5-5-5-5-5-5-5-5---|
G#|--5-5-5-5-5-5-5-5--------|-5---9---10---5-5-5-5-5-5-5-5-5-5-5-5-5-5-5-5-5---|
D#|--3-3-3-3-3-3-3-3--------|-3---7----8---3-3-3-3-3-3-3-3-3-3-3-3-3-3-3-3-3---|


[Pre-Chorus]
D#|---------------------------------------------------------------------------------------------------------|
A#|---------------------------------------------------------------------------------------------------------|
F#|---------------------------------------------------------------------------------------------------------|
C#|--9-9-9-9-9-9--10-10-10-10-10--5-5-5-5-5---------------7-7-7-7-7-7-7--5-5-5-5-5-5-5-5--x-x-x-x-x-x-x-x---|
G#|--9-9-9-9-9-9--10-10-10-10-10--5-5-5-5-5--2-2-2-2-2-2--7-7-7-7-7-7-7--5-5-5-5-5-5-5-5--x-x-x-x-x-x-x-x---|
D#|--7-7-7-7-7-7--8--8--8--8--8---3-3-3-3-3--0-0-0-0-0-0--5-5-5-5-5-5-7--3-3-3-3-3-3-3-3--x-x-x-x-x-x-x-x---|


[Chorus]

"It's not the same..."
D#|----------------------------------------------------------------------------------------------------|
A#|----------------------------------------------------------------------------------------------------|
F#|-5-5-5-5-----------------5-5-5-5--------------------------------------------------------------------|
C#|-5-5-5-5--7-7-7-7-7-7-7--5-5-5-5--7-7-7-7-7-7-7-7----5-5-5-5-5-5-5-5--------------------------------| x2
G#|-3-3-3-3--7-7-7-7-7-7-7--3-3-3-3--7-7-7-7-7-7-7-7----5-5-5-5-5-5-5-5----2-2-2-2-2-2-2-2-2-----------|
D#|----------5-5-5-5-5-5-5-----------5-5-5-5-5-5-5-5----3-3-3-3-3-3-3-3--*-0-0-0-0-0-0-0-0-0-----------|

*second time: stop here and play the 355 chord instead


drum part, BREAKDOWN

D#|--------------------------------------------------------------------------------------------------------| 
A#|-12-10-8-7-8-10-7~~-----------------------------------12-10-8-7-8-10-7~---------------------------------| 
F#|---------------------5-5-5-5-5-5-5--4-4------------------------------------5-5-5-5-5--4-4-4-------------| 
C#|---------------------5-5-5-5-5-5-5--4-4--2-2-2-2-2-2-----------------------5-5-5-5-5--4-4-4--2-2--5-----| 
G#|---------------------3-3-3-3-3-3-3--2-2--0-0-0-0-0-0-----------------------3-3-3-3-3--2-2-2--0-0--5-----| 
D#|--------------------------------------------------------------------------------------------------3-----|



************************************

| x   Dead note
| h   Hammer-on
| p   Pull-off
| r   Release
| b   Bend
| /   Slide up
| ~   Vibrato

************************************

            
            
Suggest correction
Creating personal tab
Creating personal tab
You can edit any tab online and save it as your Personal.

You can edit, replace or remove any tab part or add personal notes – all changes will be seen only by you.

Personal tabs can be accessed anytime from any device, even offline.
Learn more »
Give kudos to tab author, rate the tab!
1 2 3 4 5
comments
print report bad tab
guest
You may want to rate the tab now too:
select rating
Wanna post a correction for this tab? Suggest correction