Oops, an error
Loading. Please wait.

Believe Me chords

version 2
version 2

Whole song

by RPWL
133 views 1 this week
no commentswrite comment
1 2 3 4 5
x 3
add to favorites
×
Save as Personal and add changes to this tab that will be seen only by you. Learn more ›
×
You can save this tab as Personal to edit and correct it or add notes. All changes will be seen only by you. Learn more »
launch autoscroll
font size
0
reset
transpose
0
reset
simplify chords
display chords
guitar tuner
edit
Autoscroll
slow
fast
+/-
esc
set tempo
stop
Author
Difficulty
Strumming
There is no strumming pattern for this song yet. and get +5 IQ
-----------------------------------------------------------------------------
                                          Artist - RPWL
                                         ***************
                                        Song - Belive Me 
                                       ******************
                                  Album - Trying To Kiss The Sun 
                                 ********************************
                                       Tabbed By - Ayreon77
                                      **********************
-----------------------------------------------------------------------------
Tuning = Standard

INTRO
******
Asus2 = X02200
Am    = X02210 


----------------------------------------------------
VERSE 1
********
F                 G
  Looking for the answers
F                         G
  What a dreamer needs to know
F                               G      Electric Guitar
  Who's gonna wake me when it's over  |---------|---------|         
Am            Am   ------------------ |---------|---------|   
Far away from home                    |-----2-0-|-------0-|
F                     G               |---2-----|---2-4---|
  You're not the only reason          |-0-------|-0-------|              
F                        G            |---------|---------|  
  Though somehow I'm not sure
F                     G
  How I can,t stand a single day without you


----------------------------------------------------
CHORUS
*******
  C
Believe me
  Em
Believe me
    D                F
I'm not the only one you are waiting for
  C
Believe me
  Em
Believe me
          D                F
Cause I'm not the only one you are waiting for        
       

----------------------------------------------------                                              
BREAK - Am = Electric guitar Above
******

----------------------------------------------------
VERSE 2
********
F                      G
  Please come a little closer
F                               G
  So strange to hear you on the phone
   F                                G
To feel the warmth together without gaining our end
Am
Lost and found

Far away from home


----------------------------------------------------
CHORUS
*******
  C
Believe me
  Em
Believe me
    D                F
I'm not the only one you are waiting for
  C
Believe me
  Em
Believe me
          D                F
Cause I'm not the only one you are waiting for        
       

----------------------------------------------------
Small Distorted Electric Guitar Solo
*************************************
  D            C                 D        Bbm
e|-----------------------------------------------|--------------|
B|-----------------------------------------------|--------------|
G|-----------------------------------------------|--------------|
D|-----------------------------------------------|-----s----6-8-|
A|--------------s-----------------------------s--|-6--6\8-------|
E|-5--------6--6\8---------------5--------6--6\9-|--------------|


----------------------------------------------------
03:25
Acoustic Solo
**************
e|----------------|--------------------|----------------|-------------------|---------------------------|
B|---------rbp----|------------b-----s-|----------------|-------------------|---------------------------|
G|--s--5---7--5---|--s--7--9-7-9-9-7-\-|--s----h-p------|--h--p-------------|------------------s--5-----|
D|-5\7----------7-|-7\9----------------|-5\7--0-1-0-----|-0-1-0-------------|-----------s--5--5\7---7~~-|
A|----------------|--------------------|------------3-0-|-------3-0----s----|--s--3-5--5\7--------------|
E|----------------|--------------------|----------------|-----------3-3\5-3-|-3\5-----------------------|

                                                       s                   brp                     s           
e|-------|----------------------|--------s---8-10-8-8-8\10----|--s---8-10-10--8-10-8-10--10-8-10-10\12-|
B|-----b-|-b-8-brp-------s--8~~-|--s--8-8\10---------------10-|-8\10-----------------------------------|
G|-5---7-|-7---7--5-7-5-7\9-----|-7\9-------------------------|----------------------------------------|
D|---7---|----------------------|-----------------------------|----------------------------------------|
A|-------|----------------------|-----------------------------|----------------------------------------|
E|-------|----------------------|-----------------------------|----------------------------------------|

         br
e|-12-10-12-|
B|----------|
G|----------|
D|----------|
A|----------|
E|----------|


----------------------------------------------------
CHORUS
*******
  C
Believe me
  Em
Believe me
    D                F
I'm not the only one you are waiting for
  C
Believe me
  Em
Believe me
          D                F
Cause I'm not the only one you are waiting for        
       

---------------------------------------------------- 

04:31
e|----------------------|-------------------|------------------|
B|-----s--8--h--p-------|--s--8--h--p-------|-----h--s---------|
G|-9--7\9---9-10-9----7-|-7\9---9-10-9----7-|----7-9-\-5--7--9-|
D|-----------------10---|--------------10---|-7----------------|
A|----------------------|-------------------|------------------|
E|----------------------|-------------------|------------------|


e|----------------------|-------------------|------------|
B|-----s--8--h--p-------|--s--8--h--p-------|-----h--s---|
G|-9--7\9---9-10-9----7-|-7\9---9-10-9----7-|----7-9-\-5-|
D|-----------------10---|--------------10---|-7----------|
A|----------------------|-------------------|------------|
E|----------------------|-------------------|------------|



ENJOY.........

            
            
Suggest correction
Creating personal tab
Creating personal tab
You can edit any tab online and save it as your Personal.

You can edit, replace or remove any tab part or add personal notes – all changes will be seen only by you.

Personal tabs can be accessed anytime from any device, even offline.
Learn more »
Give kudos to tab author, rate the tab!
1 2 3 4 5
comments
print report bad tab
guest
You may want to rate the tab now too:
select rating
Wanna post a correction for this tab? Suggest correction