Oops, an error
Loading. Please wait.

Face The Music bass

version 1
version 1

Whole song

Interactive

by RTZ
50 views 1 this week
no commentswrite comment
1 2 3 4 5
3 more votes to show rating
add to favorites
×
Save as Personal and add changes to this tab that will be seen only by you. Learn more ›
×
You can save this tab as Personal to edit and correct it or add notes. All changes will be seen only by you. Learn more »
launch autoscroll
font size
0
reset
guitar tuner
edit
Autoscroll
slow
fast
+/-
esc
set tempo
stop
Author
Difficulty
-------------------------------------------------------------------------------
			     FACE THE MUSIC - RTZ
-------------------------------------------------------------------------------
Tabbed by: Isaias Garcia

Tuning: standard


     W                   W                   W                   W
G||-------------------|-------------------|-------------------|-------------------|
D||-------------------|-------------------|-------------------|-------------------|
A||-------------------|-------------------|-------------------|-------------------|
E||-------------------|-------------------|-------------------|-------------------|
B||-------------------|-------------------|-------------------|-------------------|


  W                   W                   W                   W                   W
-------------------|-------------------|-------------------|-------------------|-----------------|
-------------------|-------------------|-------------------|-------------------|-----------------|
-------------------|-------------------|-------------------|-------------------|-----------------|
-------------------|-------------------|-------------------|-------------------|-----------------|
-------------------|-------------------|-------------------|-------------------|-----------------|


  W                   W                   E  E  E  E  E  E  E  E     E  E  E  E  E  E  E 
E
-------------------|-------------------|--------------------------|--------------------------|
-------------------|-------------------|--------------------------|--------------------------|
-------------------|-------------------|--------------------------|--------------------------|
-------------------|-------------------|--0--0-----0--0--0-----0--|--0--0-----0--0--0-----0--|
-------------------|-------------------|--------------------------|--------------------------|


  E  E  E  E  E  E  E  E     E  E  E  E  E  E  E  E     E  E  E  E  E  E  E  E
--------------------------|--------------------------|--------------------------|
--------------------------|--------------------------|--------------------------|
--------------------------|--------------------------|--------------------------|
--5--5-----5--5--5-----5--|--5--5-----5--5--5-----5--|--0--0-----0--0--0-----0--|
--------------------------|--------------------------|--------------------------|


  E  E  E  E  E  E  E  E     E  E  E  E  E  E  E  E     E  E  E  E  E  E  E  E
--------------------------|--------------------------|--------------------------|
--------------------------|--------------------------|--------------------------|
--------------------------|--------------------------|--------------------------|
--0--0-----0--0--0-----0--|--5--5-----5--5--5-----5--|--5--5-----5--5--5-----5--|
--------------------------|--------------------------|--------------------------|


  E  E  E  E  E  E  E  E     E  E  E  E  E  E  E  E     E  E  E  E  E  E  E  E
--------------------------|--------------------------|--------------------------|
--------------------------|--------------------------|--------------------------|
--------------------------|--------------------------|--------------------------|
--0--0-----0--0--0-----0--|--0--0-----0--0--0-----0--|--5--5-----5--5--5-----5--|
--------------------------|--------------------------|--------------------------|


  E  E  E  E  E  E  E  E     E  E  E  E  E  E  E  E     E  E  E  E  E  E  E  E
--------------------------|--------------------------|--------------------------|
--------------------------|--------------------------|--------------------------|
--------------------------|--5--5-----5--5--5-----5--|--5--5-----5--5--5-----5--|
--5--5-----5--5--5-----5--|--------------------------|--------------------------|
--------------------------|--------------------------|--------------------------|


  E  E  E  E  E  E  E  E     E  E  E  E  E  E   Q        E  E  E  E  E  E  E  E
--------------------------|---------------------------|--------------------------|
--------------------------|---------------------------|--------------------------|
--5--5-----5--5--5-----5--|--5--5--5--5--5--5---------|--------------------------|
--------------------------|--------------------12\----|--0--0--0--0--0--0--0--0--|
--------------------------|---------------------------|--------------------------|


  E  E  E  E  E  S  S E  E     E  E  E  E  E  E  E  E     E  E  E   S   S  E   E   Q
----------------------------|--------------------------|--------------------------------|
----------------------------|--------------------------|-----------12h-14-14--14--14----|
----------------------7-----|--------------------------|--------------------------------|
--0--0--0--0--0--5h-7----7--|--0--0--0--0--0--0--0--0--|--0--0--0-----------------------|
----------------------------|--------------------------|--------------------------------|


  E  E  E  E  E  E  E  E     E  E  E  E  E  S  S E  E     E  E  E  E  E  E  E  E
--------------------------|----------------------------|--------------------------|
--------------------------|----------------------------|--------------------------|
--------------------------|----------------------7-----|--------------------------|
--0--0--0--0--0--0--0--0--|--0--0--0--0--0--5h-7----7--|--0--0--0--0--0--0--0--3--|
--------------------------|----------------------------|--------------------------|


  E  E  E  E  E  E  E  E     E  E  E  E  E  E  E  E     E  E  E  E  E  E   Q
--------------------------|--------------------------|---------------------------|
--------------------------|--------------------------|---------------------------|
--------------------------|--7--7-----7--7--7-----7--|--7--7-----7--7--7---------|
--3--3--3--3--3--3--3--3--|--------------------------|--------------------12\----|
--------------------------|--------------------------|---------------------------|


  E  E  E  E  E  E  E  E     E  E  E  E  E  E  E  E     E  E  E  E  E  E  E  E
--------------------------|--------------------------|--------------------------|
--------------------------|--------------------------|--------------------------|
--------------------------|--------------------------|--------------------------|
--0--0-----0--0--0-----0--|--0--0-----0--0--0-----0--|--5--5-----5--5--5-----5--|
--------------------------|--------------------------|--------------------------|


  E  E  E  E  E  E  E  E     E  E  E  E  E  E  E  E     E  E  E  E  E  E  E  E
--------------------------|--------------------------|--------------------------|
--------------------------|--------------------------|--------------------------|
--------------------------|--------------------------|--------------------------|
--5--5-----5--5--5-----5--|--0--0-----0--0--0-----0--|--0--0-----0--0--0-----0--|
--------------------------|--------------------------|--------------------------|


  E  E  E  E  E  E  E  E     E  E  E  E  E  E  E  E     E  E  E  E  E  E  E  E
--------------------------|--------------------------|--------------------------|
--------------------------|--------------------------|--------------------------|
--------------------------|--------------------------|--5--5-----5--5--5-----5--|
--5--5-----5--5--5-----5--|--5--5-----5--5--5-----5--|--------------------------|
--------------------------|--------------------------|--------------------------|


  E  E  E  E  E  E  E  E     E  E  E  E  E  E  E  E     E  E  E  E  E  E   Q
--------------------------|--------------------------|---------------------------|
--------------------------|--------------------------|---------------------------|
--5--5-----5--5--5-----5--|--5--5-----5--5--5-----5--|--5--5--5--5--5--5---------|
--------------------------|--------------------------|--------------------12\----|
--------------------------|--------------------------|---------------------------|


  E  E  E  E  E  E  E  E     E  E  E  E  E  S  S E  E     E  E  E  E  E  E  E  E
--------------------------|----------------------------|--------------------------|
--------------------------|----------------------------|--------------------------|
--------------------------|----------------------7-----|--------------------------|
--0--0--0--0--0--0--0--0--|--0--0--0--0--0--5h-7----7--|--0--0--0--0--0--0--0--0--|
--------------------------|----------------------------|--------------------------|


  E  E  E   S   S  E   E   Q       E  E  E  E  E  E  E  E     E  E  E  E  E   S  S  E   E
--------------------------------|--------------------------|-------------------------------|
-----------12h-14-14--14--14----|--------------------------|-----------------14-14-14------|
--------------------------------|--------------------------|---------------------------14--|
--0--0--0-----------------------|--0--0--0--0--0--0--0--0--|--0--0--0--0--0----------------|
--------------------------------|--------------------------|-------------------------------|


  E  E  E  E  E  E  E  E     E  E  E  E  E  E    Q        E  E  E  E  E  E  E  E
--------------------------|----------------------------|--------------------------|
--------------------------|----------------------------|--------------------------|
--------------------------|----------------------------|--------------------------|
--0--0--0--0--0--0--0--3--|--3--3--3--3--3--3--/12\----|--0--0--0--0--0--0--0--0--|
--------------------------|----------------------------|--------------------------|


  E  E  E  E  E  S  S E  E     E  E  E  E  E  E  E  E     E  E  E   S  S  S  S  E   Q
----------------------------|--------------------------|---------------------------------|
----------------------------|--------------------------|-----------14-14-14-14-14--14----|
----------------------7-----|--------------------------|---------------------------------|
--0--0--0--0--0--5h-7----7--|--0--0--0--0--0--0--0--0--|--0--0--0------------------------|
----------------------------|--------------------------|---------------------------------|


  E  E  E  E  E  E  E  E     E  E  E  E  E  S  S E  E     E  E  E  E  E  E  E  E
--------------------------|----------------------------|--------------------------|
--------------------------|----------------------------|--------------------------|
--------------------------|----------------------7-----|--------------------------|
--0--0--0--0--0--0--0--0--|--0--0--0--0--0--5h-7----7--|--0--0--0--0--0--0--0--3--|
--------------------------|----------------------------|--------------------------|


  E  E  E  E  E  E  E  E     E  E  E  E  E  E  E  E     E  E  E  E  E  E  E  E
--------------------------|--------------------------|--------------------------|
--------------------------|--------------------------|--------------------------|
--------------------------|--7--7--7--7--7--7--7--7--|--7--7--7--7--7--7--7--7--|
--3--3--3--3--3--3--3--3--|--------------------------|--------------------------|
--------------------------|--------------------------|--------------------------|


  E  E  E  E  E  E  E  E     E  E  E  E  E  E  E  E     E  E  E  E  E  E  S S E
--------------------------|--------------------------|---------------------------|
--------------------------|--------------------------|---------------------------|
--7--7--7--7--7--7--7--7--|--7--7--7--7--7--7--7--7--|--------7-----------7------|
--------------------------|--------------------------|--0--0-----0--0--0----0-0--|
--------------------------|--------------------------|---------------------------|


  E  E  Q    E  E  S S E     E  E  E  S S E  E  E  E     E  E  E  E  E  E  Q
--------------------------|---------------------------|-------------------------|
--------------------------|---------------------------|-------------------------|
--7-----7----------7-7----|--7--------7-7-7-----------|-------------------------|
-----0-------0--0------0--|-----0--0---------0--0--3--|--3--3--3--3--3--3--3----|
--------------------------|---------------------------|-------------------------|


  W                   W                   Q    Q    H           W
-------------------|-------------------|---------------------|-------------------|
-------------------|-------------------|---------------------|-------------------|
-------------------|-------------------|---------------------|-------------------|
--0----------------|--L----------------|--L------------------|-------------------|
-------------------|-------------------|---------------------|-------------------|


  W                   W                   W                   W
-------------------|-------------------|-------------------|-------------------|
-------------------|-------------------|-------------------|-------------------|
-------------------|-------------------|-------------------|-------------------|
-------------------|-------------------|-------------------|-------------------|
-------------------|-------------------|-------------------|-------------------|


  E  E  E  E  E  E  E  E     E  E  E  E  E  S  S E  E     E  E  E  E  E  E  E  E
--------------------------|----------------------------|--------------------------|
--------------------------|----------------------------|--------------------------|
--------------------------|----------------------7-----|--------------------------|
--0--0--0--0--0--0--0--0--|--0--0--0--0--0--5h-7----7--|--0--0--0--0--0--0--0--0--|
--------------------------|----------------------------|--------------------------|


  E  E  E   S   S  E   E   Q       E  E  E  E  E  E  E  E     E  E  E  E  E  S  S E  E
--------------------------------|--------------------------|----------------------------|
-----------12h-14-14--14--14----|--------------------------|----------------------------|
--------------------------------|--------------------------|----------------------7-----|
--0--0--0-----------------------|--0--0--0--0--0--0--0--0--|--0--0--0--0--0--5h-7----7--|
--------------------------------|--------------------------|----------------------------|


  E  E  E  E  E  E  E  E     E  E  E  E  E  E    Q        E  E  E  E  E  E  E  E
--------------------------|----------------------------|--------------------------|
--------------------------|----------------------------|--------------------------|
--------------------------|----------------------------|--------------------------|
--0--0--0--0--0--0--0--3--|--3--3--3--3--3--3--/12\----|--0--0--0--0--0--0--0--0--|
--------------------------|----------------------------|--------------------------|


  E  E  E   S  S  E   S  S  E   E     E  E  E  E  E  E  E  E     E  E  E   S  S  E   E   Q
-----------------------------------|--------------------------|-------------------------------|
-----------14-14-14--14-14-----14--|--------------------------|-----------14-14-14--14--14----|
---------------------------14------|--------------------------|-------------------------------|
--0--0--0--------------------------|--0--0--0--0--0--0--0--0--|--0--0--0----------------------|
-----------------------------------|--------------------------|-------------------------------|


  E  E  E  E  E  E  E  E     E  E  E  E  E  S  S E  E     E  E  E  E  E  E  E  E
--------------------------|----------------------------|--------------------------|
--------------------------|----------------------------|--------------------------|
--------------------------|----------------------7-----|--------------------------|
--0--0--0--0--0--0--0--0--|--0--0--0--0--0--5h-7----7--|--0--0--0--0--0--0--0--3--|
--------------------------|----------------------------|--------------------------|


  E  E  E  E  E  E    Q        E  E  E  E  E  E  E  E     E  E  E  E  E  E  E  E
----------------------------|--------------------------|--------------------------|
----------------------------|--------------------------|--------------------------|
----------------------------|--7--7--7--7--7--7--7--7--|--7--7--7--7--7--7--7--7--|
--3--3--3--3--3--3--/12\----|--------------------------|--------------------------|
----------------------------|--------------------------|--------------------------|


  E  E  E  E  E  E  E  E     E  E  E  E  S  S E  Q       E  E  E  E  E  E  E  E
--------------------------|---------------------------|--------------------------|
--------------------------|---------------------------|--------------------------|
--7--7--7--7--7--7--7--7--|--7--7--7--7--9p-7---------|--------------------------|
--------------------------|-------------------9--7----|--0--0--0--0--0--0--0--0--|
--------------------------|---------------------------|--------------------------|


  E  E  E  E  E  E  E  E     E  E  E  E  E  E  E  E     E  E  E  E  E  E    Q
--------------------------|--------------------------|----------------------------|
--------------------------|--------------------------|----------------------------|
--------------------------|--------------------------|----------------------------|
--0--0--0--0--0--0--0--0--|--0--0--0--0--0--0--0--0--|--3--3--3--3--3--3--/12\----|
--------------------------|--------------------------|----------------------------|


  E  E  E  E  E  E  E  E     E  E  E   S  S  S  S  S  S  Q       E  E  E  E  E  E  E  E
--------------------------|-----------------------------------|--------------------------|
--------------------------|-----------14-14-14-14-14-14-------|--------------------------|
--------------------------|-----------------------------14----|--------------------------|
--0--0--0--0--0--0--0--0--|--0--0--0--------------------------|--0--0--0--0--0--0--0--0--|
--------------------------|-----------------------------------|--------------------------|


  E  E  Q    E  E  Q       E  E  E  E  E  E  E  E     E  E  E  E  E  E  E  E
------------------------|--------------------------|--------------------------|
------------------------|--------------------------|--------------------------|
------------------------|--------7--------7--------|--7--7-----------7--------|
--3--3------------------|--0--0-----0--0-----0--0--|--------0--0--0-----0--0--|
--------1----2--3--4----|--------------------------|--------------------------|


  E  E  E  E  E  E  E  E     E  E  E   S  S  S  S  S  S  Q
--------------------------|-----------------------------------|-------|-------|-------|-------||
--------------------------|-----------14-14-14-14-14-14-14----|-------|-------|-------|-------||
--------------------------|-----------------------------------|-------|-------|-------|-------||
--0--0--0--0--0--0--0--0--|--0--0--0--------------------------|-------|-------|-------|-------||
--------------------------|-----------------------------------|-------|-------|-------|-------||


Duration Legend
---------------
W - whole
H - half
Q - quarter
E - 8th
S - 16th
T - 32nd
X - 64th
. - note dotted
|-n-|  - n-tuplets


Tablature Legend
----------------
L - tied note
x - dead note
g - grace note
(n) - ghost note
> - accentuded note
NH - natural harmonic
AH - artificial harmonic
TH - tapped harmonic
SH - semi harmonic
PH - pitch harmonic
h - hammer on
p - pull off
b - bend
br - bendRelease
pb - preBend
pbr - preBendRelease
brb - bendReleaseBend
\n/ - tremolo bar dip
\n - tremolo bar dive
-/n - tremolo bar Release up
/n\ - tremolo bar inverted dip
/n - tremolo bar return
-\n - tremolo bar Release down
S - shift slide
s - legato slide
/ -  slide into from below or out of upwards
\ -  slide into from above or out of downwards
~ - vibrato
W - wide vibrato
tr - trill
TP - tremolo picking
T - tapping
S - slap
P - pop
< - fade in
^ - brush up
v - brush down

            
            
Suggest correction
Creating personal tab
Creating personal tab
You can edit any tab online and save it as your Personal.

You can edit, replace or remove any tab part or add personal notes – all changes will be seen only by you.

Personal tabs can be accessed anytime from any device, even offline.
Learn more »
Give kudos to tab author, rate the tab!
1 2 3 4 5
comments
print report bad tab
guest
You may want to rate the tab now too:
select rating
Wanna post a correction for this tab? Suggest correction