Oops, an error
Loading. Please wait.

Choices Of Evils bass

406 views 1 this week
1 commentread comment
1 2 3 4 5
2 more votes to show rating
add to favorites
×
Save as Personal and add changes to this tab that will be seen only by you. Learn more ›
×
You can save this tab as Personal to edit and correct it or add notes. All changes will be seen only by you. Learn more »
launch autoscroll
font size
0
reset
guitar tuner
edit
Autoscroll
slow
fast
+/-
esc
set tempo
stop
this is my 1st time writing a tab for any song. so bear with me.

Verse 

e:--------------
a:--------------
d:--------------
g:-3-3-3-1-2-3-4

e:--------------
a:--------------
d:--------------
g:-3-3-3-1-2-3-4

e:--------------
a:--------------
d:--------------
g:-3-3-3-1-2-3-4

e:--------------
a:--------------
d:--------------
g:-3-3-3-1-2-3-4

Chorus

e:------------------------
a:------------------------
d:------------------------
g:-6-6-6-6-6-6-4-4-4-4-4-4

e:------------------------
a:------------------------
d:------------------------
g:-6-6-6-6-6-6-4-4-4-4-4-4




hope u guys like it cause i do

            
            
Suggest correction
Creating personal tab
Creating personal tab
You can edit any tab online and save it as your Personal.

You can edit, replace or remove any tab part or add personal notes – all changes will be seen only by you.

Personal tabs can be accessed anytime from any device, even offline.
Learn more »
Give kudos to tab author, rate the tab!
1 2 3 4 5
comments
print report bad tab
1 comment total.
0 reply
gothguy_402 10 Aug 15, 2003 08:00 PM

the song is actually played like this, sorry i messed up whoever else is reading this.

verse:
e:--------------
a:--------------
d:--------------
g:-3-3-3-3-1-2-3-4

e:--------------
a:--------------
d:--------------
g:-3-3-3-3-1-2-3-4

e:--------------
a:--------------
d:--------------
g:-3-3-3-3-1-2-3-4

e:--------------
a:--------------
d:--------------
g:-3-3-3-3-1-2-3-4
Chorus:
e:------------------------
a:------------------------
d:------------------------
g:-6-6-6-6-6-6-4-4-4-4-4-4

e:------------------------
a:------------------------
d:------------------------
g:-6-6-6-6-6-6-4-4-4-4-4-4
there all done and better

guest
Wanna post a correction for this tab? Suggest correction