Oops, an error
Loading. Please wait.

Anybody Out There bass

version 1
version 1

Whole song

by Rufio
311 views 1 this week
no commentswrite comment
1 2 3 4 5
3 more votes to show rating
add to favorites
×
Save as Personal and add changes to this tab that will be seen only by you. Learn more ›
×
You can save this tab as Personal to edit and correct it or add notes. All changes will be seen only by you. Learn more »
launch autoscroll
font size
0
reset
guitar tuner
edit
Autoscroll
slow
fast
+/-
esc
set tempo
stop
Author
++++++++++++++++++++++++++++
| Rufio- Anybody Out There |
++++++++++++++++++++++++++++


"It's too late to say
Is anybody out there?..."


Tuning: Standard EADG


Intro
1.
G|------------------------------------10-8--------------------|
D|-------3-1-----------4~----4/11~---------11-8-10-11~--4~----|
A|-4~--------4-1-3-4~-----------------------------------------|
E|------------------------------------------------------------|

2.
G|-------------------------------------|
D|-------------------------------------|
A|-44444444----------11111111----------|
E|----------44444444----------22222222-|

Verse
"Come on and rescue me..."  (1 not 11)
3.
G|----------------------------------------------------------------------------------------|
D|----------------------------------------------------------------------------------------|
A|-11x--------------------11x--------------------11x--------------------11----------------|
E|------222x--222x--24444------222x--222x--24444------222x--222x--24444----2-4-2~-2222222-|

"I found the perfect friend..."
4.
G|----------------------------------------------------------------------------------------|
D|------------4----------------------4----------------------4-----------------------------|
A|-11x--------------------11x--------------------11x--------------------11----------------|
E|------222x---22x--24444------222x---22x--24444------222x---22x--24444----2-4-2~-2222222-|

Chorus
"Now who's the monster..."
5.
G|-------------------------------------------------------------------------|
D|-------------------------------------------------------------------------|
A|-4-4-444-----------1-1-111-----------4-4-444-----------1-1-111-----------|
E|---------4-4444444---------2-2222222---------4-4444444---------2-2222222-|

"Its too late to say..."
6.
G|----------------------------------------------------------|
D|----------------------------------------------------------|
A|-111-------444-------111-------444--666--11---------------|
E|------444-------222-------444---------------2-4-2~--------|

Verse
"Away from all I know..."
7.
G|----------------------------------------------------------------------------------------|
D|------------4----------------------4----------------------4-----------------------------|
A|-11x--------------------11x--------------------11x--------------------11----------------|
E|------222x---22x--24444------222x---22x--24444------222x---22x--24444----2-4-2~-2222222-|

"I did a lot..."
8.
G|----------------------------------------------------------------------------------------|
D|----------------------------------------------------------------------------------------|
A|-11x--------------------11x--------------------11x--------------------11----------------|
E|------222x--222x--24444------222x--222x--24444------222x--222x--24444----2-4-2~-2222222-|

Chorus
"Now who's the monster..."
9.
G|-------------------------------------------------------------------------|
D|-------------------------------------------------------------------------|
A|-4-4-444-----------1-1-111-----------4-4-444-----------1-1-111-----------|
E|---------4-4444444---------2-2222222---------4-4444444---------2-2222222-|

"Its too late to say..."
10.
G|-----------------------------------------8------------------------------------------|
D|----------------------------------------8-------------------------------------------|
A|-111-------444-------111-------444--66h8---111-------444-------111-------444--------|
E|------444-------222-------444-------------------444-------222-------444-------222x--|

Bridge
"Who feels the same way that I do..."
11.
G|------------------------------------------------------------------------------------|
D|------------------------------------------------------------------------------------|
A|-----------------1---------------343-----------------1------------------------------|
E|-2~-22-2-2-2-2-24--4~-44-4-4-4-4-----2~-22-2-2-2-2-24--4~-44-4-4-4/1616161616161616-|

"Now who's the monster..."
12.
G|--------10-8---------------------------10-8---------------------|
D|-11~---------11-8-10-11~--4~----4/11~---------11-8-10-11~--4~---|
A|----------------------------------------------------------------|
E|----------------------------------------------------------------|

Chorus
"Now who's the monster..."
13.
G|-------------------------------------------------------------------------|
D|-------------------------------------------------------------------------|
A|-4-4-444-----------1-1-111-----------4-4-444-----------1-1-111-----------|
E|---------4-4444444---------2-2222222---------4-4444444---------2-2222222-|

"Its too late to say..."
14.
G|----------------------------------------------------------|
D|----------------------------------------------------------|
A|-111-------444-------111-------444-------11---------------|
E|------444-------222-------444-------222-----2-4-2~--------|

Please rate thanks!!


Lyrics:

Come on and rescue me 
From all this misery
I know what I want 
But I can't hold my own

I found the perfect friend 
Who's got his perfect life
Now I can move ahead 
Because all I want is more

Now who's the monster holding their tongue
Saying the last words all you want
Who's the helpless life is undone
Permanent means permanent

It's too late to say
Is anybody out there?
It's too late to say
Is anybody out there?

Away from all I know
So I can give my show
For those who want to hear
That I want to be on top 

I did a lot for just a single day
I got it all and I got it made 
Where did all my friends and family gone 
I just don't know

Who feels the same way that I do?
Burning up in side
Who knows the problems I've been through?
Is there anybody out there



+++++++++++++++++++++++++++++++++
| Raileff                       |
| Underground__Dora@Hotmail.Com |
+++++++++++++++++++++++++++++++++

            
            
Suggest correction
Creating personal tab
Creating personal tab
You can edit any tab online and save it as your Personal.

You can edit, replace or remove any tab part or add personal notes – all changes will be seen only by you.

Personal tabs can be accessed anytime from any device, even offline.
Learn more »
Give kudos to tab author, rate the tab!
1 2 3 4 5
comments
print report bad tab
guest
You may want to rate the tab now too:
select rating
Wanna post a correction for this tab? Suggest correction