Oops, an error
Loading. Please wait.

Dont Hate Me bass

version 1
version 1

Whole song

Interactive

by Rufio
412 views 1 this week
no commentswrite comment
1 2 3 4 5
1 last vote to show rating
add to favorites
×
Save as Personal and add changes to this tab that will be seen only by you. Learn more ›
×
You can save this tab as Personal to edit and correct it or add notes. All changes will be seen only by you. Learn more »
launch autoscroll
font size
0
reset
guitar tuner
edit
Autoscroll
slow
fast
+/-
esc
set tempo
stop
Author
Don't Hate Me Bass Tab :D
Tuning: EADG

1.
G|--------------|
D|--------------|
A|--------------|
E|-02-02--------|

2.
G|---------------------------|
D|---------------------------|
A|---------------------------|
E|-44444-44444-00000-00000---|

3.
G|---------------------------|
D|---------------------------|
A|-22222-22222---------------|
E|-------------22222-22222---|

4.
G|---------------------------|
D|---------------------------|
A|---------------------------|
E|-44444-44444-00000-00000---|

5.
G|---------------------------|
D|---------------------------|
A|-22222-22222---------------|
E|-------------22222-2-------|

"I remember when.."
6.
G|---------------------------|
D|---------------------------|
A|------2~--------2~---------|
E|-4~--------0~-------2~-----|

"Moments shared.."
7.
G|---------------------------|
D|---------------------------|
A|------2~-----2~------------|
E|-4~----------------2~------|

"All I want.."         x2
8.
G|----------------------------------------|
D|----------------------------------------|
A|-------------------------------222222222|
E|-000000000-222222222-444444444----------|

"My love is gone.."
9.
G|---------------------------|
D|---------------------------|
A|---------------------------|
E|-000-00-222-22-------------|

"Honesty is all..." x2
10.
G|--------------------------------------|
D|--------------------------------------|
A|--------------------222222222---------|
E|-444444444-000000000---------222222222|

"Well I see, you and me.."
11.
G|---------------------------|
D|---------------------------|
A|-----------22222x----------|
E|-44444x-00--------22-------|

"Separating for good.."
12.
G|---------------------------|
D|---------------------------|
A|-----------22222x----------|
E|-44444x-00---------02-02---|

"No more friends.." x2
13.
G|---------------------------|
D|---------------------------|
A|-----------22222x----------|
E|-44444x-00--------22-------|

"All I want.."     x2
14.
G|----------------------------------------|
D|----------------------------------------|
A|-------------------------------222222222|
E|-000000000-222222222-444444444----------|

"My love is gone.."
15.
G|---------------------------|
D|---------------------------|
A|---------------------------|
E|-000-00-222-22-------------|

"Night is over.." 2:06
16.
G|---------------------------|
D|---------------------------|
A|---------------------------|
E|-44444-44444-00000-00000---|

17.
G|---------------------------|
D|---------------------------|
A|-22222-22222---------------|
E|-------------22222222222---|

18.
G|---------------------------|
D|---------------------------|
A|---------------------------|
E|-44444-44444-00000-00000---|

19.
G|---------------------------|
D|---------------------------|
A|-22222-22222---------------|
E|-------------22222222222---|

Bass Solo ^^  x4

20.
G|---4----4----4----4----3----3----3----3----4----4----4----4----11----11----11----11-|
D|-22-2-22-2-22-2-22-2-44-4-44-4-44-4-44-4-66-6-66-6-66-6-66-6-99--9-99--9-99--9-99--9|
A|------------------------------------------------------------------------------------|
E|------------------------------------------------------------------------------------|

"All I want.." (2 & 0, not 20 ) x2
21.
G|----------------------------------------------|
D|----------------------------------------------|
A|-------------------------------------222222222|
E|-00-00-00-00-00-20-20-20-20-44444444----------|

"So please Dont Hate me..!"
22.
G|---------------------------|
D|---------------------------|
A|---------------------------|
E|-000-00-222-22-------------|

23.
G|---------------------------|
D|---------------------------|
A|---------------------------|
E|-44444x--------------02-02-|

24.
G|--------------------------------|
D|--------------------------------|
A|-----------22222----------------|
E|-44444x-00-------02-02-03-03-4~-|

That's all
Great song.. 
Please rate !! :D

Lyrics

I remember when we would laugh all night
and nothing could stop us
moments shared we're picture perfect
memories remain

All I want is to be just friends
understand, but don't hate her

Feelings change
No strength in me
I'm sorry, my love for you is gone
My love is gone

Honesty is all
We make mistakes I know
And I knew something's wrong
I couldn't lead you on

Well I see, you and me
Separating for good
No more friends, this can't be
My best friends gone

Night is over
Orange haze has
Filled my eyes again
She's not perfect
I'm still feeling
Weak inside when she's around
Well don't hate me

Don't hate me, don't hate me
We're all done, we're all done
We're all done, we're all done

____________

RaiLeff
Underground__Dora@hotmail.com

            
            
Suggest correction
Creating personal tab
Creating personal tab
You can edit any tab online and save it as your Personal.

You can edit, replace or remove any tab part or add personal notes – all changes will be seen only by you.

Personal tabs can be accessed anytime from any device, even offline.
Learn more »
Give kudos to tab author, rate the tab!
1 2 3 4 5
comments
print report bad tab
guest
You may want to rate the tab now too:
select rating
Wanna post a correction for this tab? Suggest correction