Oops, an error
Loading. Please wait.

Drowning bass

version 1
version 1

Whole song

Interactive

by Rufio
181 views 1 this week
no commentswrite comment
1 2 3 4 5
2 more votes to show rating
add to favorites
×
Save as Personal and add changes to this tab that will be seen only by you. Learn more ›
×
You can save this tab as Personal to edit and correct it or add notes. All changes will be seen only by you. Learn more »
launch autoscroll
font size
0
reset
guitar tuner
edit
Autoscroll
slow
fast
+/-
esc
set tempo
stop
+++++++++++++++++++
| Rufio- Drowning |
+++++++++++++++++++

Drop D

Intro
1.
|--------------------------|
|--------------------------|
|-333----------------------|
|-----3-555-3-000-3-000-3--|

2.
|--------------------------|
|--------------------------|
|-333----------------------|
|-----3-555-3-000-3-000-3x-|

3.
|--------------------------|
|--------------------------|
|-3------------------------|
|-----3-555-3-000-3-000-3--|

4.
|--------------------|
|-3333-3333-----0257-|
|-------------02-----|
|-----------03-------|

Verse
"How do they know.."
5.
|-----|
|-----|
|-33x-|
|-----|

"Do they feel anything.."
6.
|------------------7h9p7--|
|-----------------------7-|
|-33x--22x----------------|
|-----------00x-----------|

Pre-Chorus
"And look down to the rocks.."
7.
|---------------------------------------|
|----------------------------------0257-|
|-33x--22x-----------------------02-----|
|-----------55x--33x-1111-1111-03-------|

Verse
"See how they walk unaware.."
8.
|-------------------------------------------------|
|-------------------------------------------------|
|-33333-22222-------------33333-22222-------------|
|-------------00000-00000-------------00000-00000-|

Pre-Chorus
"You will find.."
9.
|--------------------------------------------|
|---------------------------------------0257-|
|-33333-22222-------------------------02-----|
|-------------55555-33333-1111-1111-03-------|

Chorus
"I will never hold you.." x2
10.
|-------------------------|
|-222---------555-5-444-4-|
|-----2-333-5-------------|
|-------------------------|

"Just another anchor in your life.."
11.
|--------------------------------------------|
|-222-----------------------------------0257-|
|-----2-333---------555-5-------------02-----|
|-----------2-333-3-------1111-1111-03-------|

Verse
"I'm am afraid.."
12.
|-------------------------------------------------|
|-------------------------------------------------|
|-33333-22222-------------33333-22222-------------|
|-------------00000-00000-------------00000-00000-|

Pre-Chorus
"Underneath every tree..."
13.
|--------------------------------------------|
|---------------------------------------0257-|
|-33333-22222-------------------------02-----|
|-------------55555-33333-1111-1111-03-------|

Chorus
"I will never hold you.." x2
14.
|-------------------------|
|-222---------555-5-444-4-|
|-----2-333-5-------------|
|-------------------------|

"Just another anchor in your life.."
15.
|--------------------------------------------|
|-222-----------------------------------0257-|
|-----2-333---------555-5-------------02-----|
|-----------2-333-3-------1111-1111-03-------|

Outro.
16.
|-------------------------------|
|-------------------------------|
|------------------------3-3-3~-|  x2
|-0-0-0~--2-2-2~--3-3-3~--------|

Bridge
"You're gasping for.."
17.
|----------------------------------------|
|----------------------------------------|
|------------------------333-333-222-222-|
|-000x--222x--333x--555x-----------------|

"You're crying out.."
18.
|------------------------------------------|
|----------------------------------7502----|
|------------------------333-333-2-----02--|---¦
|-000x--222x--333x--555x-----------------3-|   ¦
                                               ¦--I'm not
19.                                            ¦  100% sure
|----------------------------------54------|   ¦  about these
|------------------------------------54----|---¦  two things..
|------------------------333-333-2-----532-|      But they 
|-000x--222x--333x--555x-------------------|      sound good.. :D

20.
|----------------------------------------|
|----------------------------------------|
|------------------------333-333-222-222-|
|-000x--222x--333x--555x-----------------|

Verse
"I won't hold you..."
21.
|---------------------------|
|--2~------------2~---------|
|------3~------------3~-----|
|----------3~------------3~-|

Pre-Chorus
"Take a breath to save your life.."
22.
|-------------------------------------|
|--2~----------------------------0257-|
|------3~------5~--------------02-----|
|----------3~------1111-1111-03-------|

Chorus
"I will never hold you.." x2
23.
|-------------------------|
|-222---------555-5-444-4-|
|-----2-333-5-------------|
|-------------------------|

"Just another anchor in your life.."
24.
|--------------------------------------------|
|-222-----------------------------------0257-|
|-----2-333---------555-5-------------02-----|
|-----------2-333-3-------1111-1111-03-------|

"I won't hold you.." x2
25.
|-------------------------|
|-222---------555-5-444-4-|
|-----2-333-5-------------|
|-------------------------|

"Just an anchor in your life.."
26.
|--------------------------------------------|
|-222-----------------------------------0257-|
|-----2-333---------555-5-------------02-----|
|-----------2-333-3-------1111-1111-03-------|

Ok this was my tab :)
I hope you enjoy it as much as I enjoyed it :)
And it's my #100 !! Yeah ! 

+++++++++++++++++

Lyrics

How do they know what is love what is real?
Do they feel anything when they step to the edge?
And look down to the rocks that they'll met
If they fall from their ground
See how they walk unaware of the steps
That they take in a dance on a line as the dead lose control
You will find what it means to have fallen in love

I will never hold you underneath for me
Maybe only just enough so you can breathe
Just another anchor in your life
Drowning over my life

I am afraid love is blind in a way
I do not wanna drag you along to a grave meant for me
Underneath every tree at the bottom of the lake

I will never hold you underneath for me
Maybe only just enough so you can breathe
Just another anchor in your life
Drowning over my life

You're gasping for a taste of air
With a hand I hold you down
You're crying out won't save you now
Everything will end with me

I won't hold you underneath for me
Maybe just enough so you can breathe
Take a breath to save your life
Drowning over my:

I will never hold you underneath for me
Maybe only just enough so you can breathe
Just another anchor in your life
Drowning over my life

I won't hold you underneath for me
(I will just bring you down)
Maybe just enough so you can breathe
(Nothing can sink me down)
Just an anchor in your life
Drowning over my life

+++++++++++++++++

+++++++++++++++++++++++++++++++++
| RaiLeff                       |
| Underground__Dora@hotmail.com |
+++++++++++++++++++++++++++++++++

            
            
Suggest correction
Creating personal tab
Creating personal tab
You can edit any tab online and save it as your Personal.

You can edit, replace or remove any tab part or add personal notes – all changes will be seen only by you.

Personal tabs can be accessed anytime from any device, even offline.
Learn more »
Give kudos to tab author, rate the tab!
1 2 3 4 5
comments
print report bad tab
guest
You may want to rate the tab now too:
select rating
Wanna post a correction for this tab? Suggest correction