Oops, an error
Loading. Please wait.

Little World bass

by Rufio
623 views 1 this week
no commentswrite comment
1 2 3 4 5
3 more votes to show rating
add to favorites
×
Save as Personal and add changes to this tab that will be seen only by you. Learn more ›
×
You can save this tab as Personal to edit and correct it or add notes. All changes will be seen only by you. Learn more »
launch autoscroll
font size
0
reset
guitar tuner
edit
Autoscroll
slow
fast
+/-
esc
set tempo
stop
Author
+++++++++++++++++++++++
| Rufio- Little World |
+++++++++++++++++++++++


"Fuck the vanity I can make it alone..."


Tuning: EADG


Intro
1.
G|--------------------------------------------------------------------|
D|--------------------------------------------------------------------|
A|-------------------2-2222-22-222-2-2222-22-222----------------------|
E|-4-44x----0-00x--------------------------------4-44x----0-00x-0~----|

Verse
"One more time you will catch up in..."
2.
G|---------------------------------------------------------|
D|---------------------------------------------------------|
A|-2-2222-22-222-------------------------------------------|
E|---------------2-2222-22-222-4-4444-44-444-0-0000-00-000-|

"Hold my breath and think..."
3.
G|---------------------------------------------------------|
D|---------------------------------------------------------|
A|-2-2222-22-222---------------7-7777-77-777-7-7777-77-777-|
E|---------------2-2222-22-222-----------------------------|

"This is a true test of my faith..."
4.
G|---------------------------------------------------------|
D|---------------------------------------------------------|
A|-2-2222-22-222-------------------------------------------|
E|---------------2-2222-22-222-4-4444-44-444-0-0000-00-000-|

"Fuck the vanity..."
5.
G|---------------------------------------------------------|
D|---------------------------------------------------------|
A|-2-2222-22-222-------------------------------------------|
E|---------------2-2222-22-222-0-0000-00-000-2x-2~---------|

Chorus
"Get out its my little world..."
6.
G|-------------------------------------------------|
D|-------------------------------------------------|
A|-22x---------------------22x---------------------|
E|--------22x----0~---------------22x----0~--------|

"Get out its my little world..."
7.
G|-----------------------------------------------------|
D|-----------------------------------------------------|
A|-22x---------------------22x-----------77x-7~--------|
E|--------22x----0~---------------22x------------------|

Outro
8.
G|----------------------|
D|----------------------|
A|----------------------|
E|-4-44x----0-00x-0~----|

Verse
"One more time I will lose my nerve..."
9.
G|---------------------------------------------------------|
D|---------------------------------------------------------|
A|-2-2222-22-222-------------------------------------------|
E|---------------2-2222-22-222-4-4444-44-444-0-0000-00-000-|

"These changes wont change my mind again..."
10.
G|---------------------------------------------------------|
D|---------------------------------------------------------|
A|-2-2222-22-222---------------7-7777-77-777-7-7777-77-777-|
E|---------------2-2222-22-222-----------------------------|

"You plead with innocence and grief..."
11.
G|---------------------------------------------------------|
D|---------------------------------------------------------|
A|-2-2222-22-222-------------------------------------------|
E|---------------2-2222-22-222-4-4444-44-444-0-0000-00-000-|

"Only ask this once..."
12.
G|---------------------------------------------------------|
D|---------------------------------------------------------|
A|-2-2222-22-222-------------------------------------------|
E|---------------2-2222-22-222-0-0000-00-000-2x-2~---------|

Chorus
"Get out its my little world..."
13.
G|-------------------------------------------------|
D|-------------------------------------------------|
A|-22x---------------------22x---------------------|
E|--------22x----0~---------------22x----0~--------|

"Get out its my little world..."
14.
G|-----------------------------------------------------|
D|-----------------------------------------------------|
A|-22x---------------------22x-----------77x-7~--------|
E|--------22x----0~---------------22x------------------|

Bridge
15.
G|---------------------------------------------------------------------------------|
D|-------------------------------44-44~----------------------------------44-44~----|
A|-66-66~----77-77~----22-22~--------------66-66~----77-77~----22-22~--------------|
E|---------------------------------------------------------------------------------|

"No face is on my god..."
16.
G|-------------------------------------------------------------------------|
D|----------------------------44444444----------------------------44444444-|
A|-66666666-77777777-22222222----------66666666-77777777-22222222----------|
E|-------------------------------------------------------------------------|

Chorus
"Get out its my little world..."
17.
G|-------------------------------------------------|
D|-------------------------------------------------|
A|-22x---------------------22x---------------------|
E|--------22x----0~---------------22x----0~--------|

"Get out its my little world..."
18.
G|------------------------------------------------|
D|------------------------------------------------|
A|-22x---------------------22x-----------77777777-|
E|--------22x----0~---------------22x-------------|

"Im starting to change my little world..."
19.
G|-------------------------------------------------------------|
D|------4444-2222-2222------4444-2222-21-----------------------|
A|-2222----------------2222-------------42---------------------|
E|-----------------------------------------4444-2222-0000-0000-|

"You've got no right to stay..."
20.
G|--------------------------------|
D|---------------2~---------------|
A|-22x----------------------------|
E|--------22x---------------------|


Please rate thanks!!


Lyrics:

One more time you will catch up in
You've become old and die from it
Hold my breath and think
I can make it alone
This is a true test of my faith
We found the promises of grace
Fuck the vanity
I can make it alone

Get out, it's my little world
You've got no right to stay
Get out, it's my little world
You've got no right to stay

One more time I will loose my nerve
And drop my personal life
These changes won't change my mind again
You plead with innocence and grief
Just know this problem isn't me
Only ask this once
Can't I make it alone

No face is on my god
But true believers call
No face is on my god
But true believers call

I'm starting to change my little world
You've got no right to stay
Get out, it's my little world
You've got no right to stay 



+++++++++++++++++++++++++++++++++
| Raileff                       |
| Underground__Dora@Hotmail.Com |
+++++++++++++++++++++++++++++++++

            
            
Suggest correction
Creating personal tab
Creating personal tab
You can edit any tab online and save it as your Personal.

You can edit, replace or remove any tab part or add personal notes – all changes will be seen only by you.

Personal tabs can be accessed anytime from any device, even offline.
Learn more »
Give kudos to tab author, rate the tab!
1 2 3 4 5
comments
print report bad tab
guest
You may want to rate the tab now too:
select rating
Wanna post a correction for this tab? Suggest correction